PrimaNota.ru - самый крупный в мире бесплатный архив песенных текстов, аккордов, табулатур и нот


The Dead Revolt - Bombshell - таба, видео

Регистрация Запомнить меня
Войти через:  Facebook Google Twitter Vk Yandex Mail.ru

The Dead Revolt - Bombshell - таба, видео

Печатать
Просмотров: 75
Уроки эстрадного вокала в Санкт-Петербурге
youtube: xzen2
my band: http://www.youtube.com/user/ZzyzxBand


http://thedeadrevolt.com/fr_home.cfm



E|-12-----------12--14--12-------------------------|
B|-12-----------12--14--12-------------------------|
G|-12-----------12--14--12-------------------------|
D|-------------------------------------------------|
A|-------------------------------------------------|
E|-------------------------------------------------|




E|-------------------------------------------------|
B|-------------------------------------------------|
G|-------------------------------------------------|
D|-------------------------------------------------|
A|-7-6-5-------------------------------------------|
E|-----------7-6-5-----3h5p3-----------------------|




E|-------------------------------------------------|
B|-------------------------------------------------|
G|-------------------------------------------------|
D|-----------------------------------------------5-|
A|-----5h7-5h7--7-5----------------5h7-5h7-7p5-----|
E|-0-0---------------7-6-5p0-3-0-0-------------7---|




E|-------------------------------------------------|
B|-------------------------------------------------|
G|-9-8-7-------------------------------------------|
D|------------9-8-7-----5h7p5----------------------|
A|-------------------------------------------------|
E|-------------------------------------------------|

________________________________________________________________


Solo

________________________________________________________________

                                    rapidly pick open B
                                       |-----------|

E|-------------------------------------------------|
B|-------------------------------------5-7-8-10-12-|
G|-7---7---7/12/7---7---7/12/7---7---7-------------|
D|-------------------------------------------------|
A|-7---7---7/12/7---7---7/12/7---7---7-------------|
E|-------------------------------------------------|



E|---------------------------------------------------|
B|---------------------------------------------------|
G|-7---7---7/12/7---7---7/12/7--7--7-7-9-11-12-14-16-|
D|-----------------------------------5-7-9--10-12-14-|
A|-7---7---7/12/7---7---7/12/7--7--7-7-9-10-12-14-15-|
E|---------------------------------------------------|

_______________________________________________________________

                                    rapidly pick open B
                                       |-----------|

E|-------------------------------------------------|
B|-7---7---7/12/7---7---7/12/7---7---7-5-7-8-10-12-|
G|-7---7---7/12/7---7---7/12/7---7---7-------------|
D|-5---5---5/10/5---5---5/10/5---5---5-------------|
A|-7---7---7/12/7---7---7/12/7---7---7-------------|
E|-------------------------------------------------|



E|-------------------------------------------------|
B|-7---7---7/12/7---7---7/12/7---7-----------------|
G|-7---7---7/12/7---7---7/12/7---7-7-9-11-12-14-16-|
D|-5---5---5/10/5---5---5/10/5---5-5-7-9--10-12-14-|
A|-7---7---7/12/7---7---7/12/7---7-7-9-10-12-14-15-|
E|-------------------------------------------------|

_______________________________________________________________


E|-------------------------------------------------|
B|-5-7-7h8-7-5--5--------------------5---4---------|
G|-------------------------------------------------|
D|--------------2--------------------5---4---------|
A|-------------------------------------------------|
E|-------------------------------------------------|




E|-------------------------------------------3---3-|
B|--------------4--------------------5---4---------|
G|-------------------------------------------3---3-|
D|--------------1--------------------5---4---------|
A|-------------------------------------------------|
E|-------------------------------------------------|




E|-------------------------------------------------|
B|--------------5--------------------5---4---------|
G|-------------------------------------------------|
D|--------------2--------------------5---4---------|
A|-------------------------------------------------|
E|-------------------------------------------------|




E|-------------------------------------------3---3-|
B|--------------4--------------------5---4---------|
G|-------------------------------------------3---3-|
D|--------------1--------------------5---4---------|
A|-------------------------------------------------|
E|-------------------------------------------------|

______________________________________________________________


E|-------------------------------------------------|
B|----------------3-2----------------------3-2-----|
G|-------2-3----4-----------------2-3----4---------|
D|-2-4-5--------------------2-4-5------------------|
A|-------------------------------------------------|
E|-------------------------------------------------|



E|------------------10-9----------------------10-9-|
B|---------10-11--12-----------------10-11--12-----|
G|-9-11-12------------------9-11-12----------------|
D|-------------------------------------------------|
A|-------------------------------------------------|
E|-------------------------------------------------|



                rapidly pick open E
 |-------------------------------------------------|

E|-12-12-12---12-12-12-----11-11-11---11-11-11-----|
B|-------------------------------------------------|
G|-------------------------------------------------|
D|-------------------------------------------------|
A|-------------------------------------------------|
E|-------------------------------------------------|



                rapidly pick open E
 |-------------------------------------------------|

E|-10-10-10---10-10-10-----9-9-9------9-9-9--------|
B|-------------------------------------------------|
G|-------------------------------------------------|
D|-------------------------------------------------|
A|-------------------------------------------------|
E|-------------------------------------------------|


____________________________________________________________

E|-------------------------------------------------|
B|-------------------------------------------------|
G|-------------------------------------------------|
D|-------------------------------------------------|
A|-------------------------------------------------|
E|-0-00-00-5-3---0-00-00-5-3-----------------------|




E|-------------------------------------------------|
B|-------------------------------------------------|
G|-------------------------------------------------|
D|-------------------------------------------------|
A|-------------------------------------------------|
E|-0-00-00-5-3---0-00-00-5-3-----------------------|




E|-------------------------------------------------|
B|-------------------------------------------------|
G|-------------------------------------------------|
D|-------------------------------------------------|
A|-------------------------------------------------|
E|-0-00-00-5-3---0-00-00-5-3-----------------------|




E|-------------------------------------------------|
B|------------------------------5-7-7h8-7-5--------|
G|-------------------------------------------------|
D|-------------------------------------------------|
A|-------------------------------------------------|
E|-0-00-00-5-3---0---------------------------------|


__________________________________________________________



E|-12---12---10---9--------------------------------|
B|-12---11---10---10-------------------------------|
G|-9----9----9----9--------------------------------|
D|-------------------------------------------------|
A|-------------------------------------------------|
E|-------------------------------------------------|


__________________________________________________________



E|-12------------12--------------------------------|
B|-12------------12--------------------------------|
G|-9-------------9---------------------------------|
D|----------------------------4h5p4p0--------------|
A|------5h7p5---------5h7p5------------------------|
E|-----------7--------------7----------------------|



                              rapidly pick open B
                                 |----------|

E|-12------------12--------------------------------|
B|-12------------12---------------8-10-11-12-------|
G|-9-------------9---------------------------------|
D|-------------------------------------------------|
A|------5h7p5---------5h7p5------------------------|
E|------------7-------------7----------------------|


__________________________________________________________



E|-12------------12--------------------------------|
B|-11------------11-----------7h8p7p0--------------|
G|-9---7h9p7-----9---7h9p7-------------------------|
D|-----------9-------------9-----------------------|
A|-------------------------------------------------|
E|-------------------------------------------------|



                          rapidly pick open B
                             |----------|

E|-12------------12--------------------------------|
B|-11------------11-----------8-10-11-12-----------|
G|-9---7h9p7-----9---7h9p7-------------------------|
D|-----------9-------------9-----------------------|
A|-------------------------------------------------|
E|-------------------------------------------------|


__________________________________________________________


2x

E|-------------------------------------------------|
B|-------------------------------------------------|
G|-------------------------------------------------|
D|-------------------------------------------------|
A|-2-----------4------------5------------4---------|
E|-0-----------2------------3------------2---------|



E|-------------------------------------------------|
B|-------------------------------------------------|
G|-------------------------------------------------|
D|-------------------------------------------------|
A|-2-----------4------------5------------7--3--6---|
E|-0-----------2------------3------------5---------|


__________________________________________________________

Delay:


E|-12-8-0--------------------10-7-0----------------|
B|--------12-8-0--------------------10-7-0---------|
G|-------------------------------------------------|
D|-------------------------------------------------|
A|-------------------------------------------------|
E|-------------------------------------------------|


__________________________________________________________



E|-0-----2-----3-----5--7--8-----------------------|
B|-0-----4-----5-----5--5--5-----------------------|
G|-0-----2-----4-----5--5--5-----------------------|
D|-2-----4-----5-----7--7--7-----------------------|
A|-2-----2-----3-----7--7--7-----------------------|
E|-0-----2-----3-----5--5--5-----------------------|
Добавлено: 05.09.2013
Другие материалы по этой песне:
  • Аккорды и текст

Страница создана 03.06.2013
http://primanota.ru/the-dead-revolt/bombshell-chords.htm
Привет, Гость.
Предлагаем пройти революционный курс по гитаре.
Подарок от PrimaNota.Ru, забирай!