PrimaNota.ru - самый крупный в мире бесплатный архив песенных текстов, аккордов, табулатур и нот


The Dangerous Summer - This Is War - таба, видео

Регистрация Запомнить меня
Войти через:  Facebook Google Twitter Vk Yandex Mail.ru

The Dangerous Summer - This Is War - таба, видео

Печатать
Просмотров: 110
Уроки эстрадного вокала в Санкт-Петербурге
Intro/Verse

D ---------------------------------------------------------------------|
A ---------------------------------------------------------------------|
F -4-4-4-4-4-4-4-4-4-4-4-4-4-4-4-4-4-4-4-4-4-4-4-4-4-4-4-4-4-4-4-4-----|
C -4-4-4-4-4-4-4-4-4-4-4-4-4-4-4-4-4-4-4-4-4-4-4-4-4-4-4-4-4-4-4-4-----|
G -2-2-2-2-2-2-2-2-2-2-2-2-2-2-2-2-2-2-2-2-2-2-2-2-2-2-2-2-2-2-2-2-----|
D -0-0-0-0-0-0-0-0-0-0-0-0-0-0-0-0-2-2-2-2-2-2-2-2-4-4-4-4-x-x-x-x-----|

Pre Chorus

(God Knows That You...)

D ---------------------------------------------------------------------|
A ---------------------------------------------------------------------|
F -4---4---4--------4---4---4---------4-4-4-4-4-4-4-4-4----------------|
C -4---4---4--------4---4---4---------4-4-4-4-4-4-4-4-4----------------|
G -2---2---2--------2---2---2---------2-2-2-2-2-2-2-2-2----------------|
D -4---0---x--------4---2---0---------0-0-0-0-0-0-0-0-0----------------|

Chorus

(So tell me what you think...)

D ---------------------------------------------------------------------|
A ---------------------------------------------------------------------|
F -4-4-4-4-4-4--4--4-4-4-4-4-4-4-4-4-4-4-4-4-4-4-4-4-4-4-4-4-4-4-4-----|
C -4-4-4-4-4-4--4--4-4-4-4-4-4-4-4-4-4-4-4-4-4-4-4-4-4-4-4-4-4-4-4-----|
G -2-2-2-2-2-2--2--2-2-2-2-2-2-2-2-2-2-2-2-2-2-2-2-2-2-2-2-2-2-2-2-----|
D -4-4-4-4-4-4--2--0-0-0-0-0-0-0-0-x-x-x-x-x-x-x-x-x-x-x-x-x-x-2-2-----|

D ---------------------------------------------------------------------|
A ---------------------------------------------------------------------|
F -4-4-4-4-4-4--4--4-4-4-4-4-4-4-4-4-4-4-4-4-4-4-4-4-4-4-4-4-4-4-4-----|
C -4-4-4-4-4-4--4--4-4-4-4-4-4-4-4-4-4-4-4-4-4-4-4-4-4-4-4-4-4-4-4-----|
G -2-2-2-2-2-2--2--2-2-2-2-2-2-2-2-2-2-2-2-2-2-2-2-2-2-2-2-2-2-2-2-----|
D -4-4-4-4-4-4--2--0-0-0-0-0-0-0-0-x-x-x-x-x-x-x-x-x-x-x-x-x-x-2-2-----|

(Because I've got some things to do...)

D ---------------------------------------------------------------------|
A ---------------------------------------------------------------------|
F -4-4-4-4-4-4-4-4-4-4-4-4-4-4-4-4-4-4-4-4-4-4-4-4-4-4-4-4-4-4-4-4-----|
C -4-4-4-4-4-4-4-4-4-4-4-4-4-4-4-4-4-4-4-4-4-4-4-4-4-4-4-4-4-4-4-4-----|
G -2-2-2-2-2-2-2-2-2-2-2-2-2-2-2-2-2-2-2-2-2-2-2-2-2-2-2-2-2-2-2-2-----|
D -4-4-4-4-4-4-4-4-2-2-2-2-2-2-2-2-0-0-0-0-0-0-0-0-0-0-0-0-0-0-0-0-----|

D ---------------------------------------------------------------------|
A ---------------------------------------------------------------------|
F -4-4-4-4-4-4-4-4-4-4-4-4-4-4-4-4-4-4-4-4-4-4-4-4-4-4-4-4-4-4-4-4-----|
C -4-4-4-4-4-4-4-4-4-4-4-4-4-4-4-4-4-4-4-4-4-4-4-4-4-4-4-4-4-4-4-4-----|
G -2-2-2-2-2-2-2-2-2-2-2-2-2-2-2-2-2-2-2-2-2-2-2-2-2-2-2-2-2-2-2-2-----|
D -4-4-4-4-4-4-4-4-2-2-2-2-2-2-2-2-0-0-0-0-0-0-0-0-0-0-0-0-0-0-0-0-----|

Verse 2

D ---------------------------------------------------------------------|
A ---------------------------------------------------------------------|
F -4-4-4-4-4-4-4-4-4-4-4-4-4-4-4-4-4-4-4-4-4-4-4-4-4-4-4-4-4-4-4-4-----|
C -4-4-4-4-4-4-4-4-4-4-4-4-4-4-4-4-4-4-4-4-4-4-4-4-4-4-4-4-4-4-4-4-----|
G -2-2-2-2-2-2-2-2-2-2-2-2-2-2-2-2-2-2-2-2-2-2-2-2-2-2-2-2-2-2-2-2-----|
D -0-0-0-0-0-0-0-0-0-0-0-0-0-0-0-0-2-2-2-2-2-2-2-2-4-4-4-4-x-x-x-x-----|

Prechorus

D ---------------------------------------------------------------------|
A ---------------------------------------------------------------------|
F -4---4---4--------4---4---4---------4-4-4-4-4-4-4-4-4----------------|
C -4---4---4--------4---4---4---------4-4-4-4-4-4-4-4-4----------------|
G -2---2---2--------2---2---2---------2-2-2-2-2-2-2-2-2----------------|
D -4---0---x--------4---2---0---------0-0-0-0-0-0-0-0-0----------------|

Chorus

(So tell me what you think...)

D ---------------------------------------------------------------------|
A ---------------------------------------------------------------------|
F -4-4-4-4-4-4--4--4-4-4-4-4-4-4-4-4-4-4-4-4-4-4-4-4-4-4-4-4-4-4-4-----|
C -4-4-4-4-4-4--4--4-4-4-4-4-4-4-4-4-4-4-4-4-4-4-4-4-4-4-4-4-4-4-4-----|
G -2-2-2-2-2-2--2--2-2-2-2-2-2-2-2-2-2-2-2-2-2-2-2-2-2-2-2-2-2-2-2-----|
D -4-4-4-4-4-4--2--0-0-0-0-0-0-0-0-x-x-x-x-x-x-x-x-x-x-x-x-x-x-2-2-----|

D ---------------------------------------------------------------------|
A ---------------------------------------------------------------------|
F -4-4-4-4-4-4--4--4-4-4-4-4-4-4-4-4-4-4-4-4-4-4-4-4-4-4-4-4-4-4-4-----|
C -4-4-4-4-4-4--4--4-4-4-4-4-4-4-4-4-4-4-4-4-4-4-4-4-4-4-4-4-4-4-4-----|
G -2-2-2-2-2-2--2--2-2-2-2-2-2-2-2-2-2-2-2-2-2-2-2-2-2-2-2-2-2-2-2-----|
D -4-4-4-4-4-4--2--0-0-0-0-0-0-0-0-x-x-x-x-x-x-x-x-x-x-x-x-x-x-2-2-----|

(Because I've got some things to do...)

D ---------------------------------------------------------------------|
A ---------------------------------------------------------------------|
F -4-4-4-4-4-4-4-4-4-4-4-4-4-4-4-4-4-4-4-4-4-4-4-4-4-4-4-4-4-4-4-4-----|
C -4-4-4-4-4-4-4-4-4-4-4-4-4-4-4-4-4-4-4-4-4-4-4-4-4-4-4-4-4-4-4-4-----|
G -2-2-2-2-2-2-2-2-2-2-2-2-2-2-2-2-2-2-2-2-2-2-2-2-2-2-2-2-2-2-2-2-----|
D -4-4-4-4-4-4-4-4-2-2-2-2-2-2-2-2-0-0-0-0-0-0-0-0-0-0-0-0-0-0-0-0-----|

D ---------------------------------------------------------------------|
A ---------------------------------------------------------------------|
F -4-4-4-4-4-4-4-4-4-4-4-4-4-4-4-4-4-4-4-4-4-4-4-4-4-4-4-4-4-4-4-4-----|
C -4-4-4-4-4-4-4-4-4-4-4-4-4-4-4-4-4-4-4-4-4-4-4-4-4-4-4-4-4-4-4-4-----|
G -2-2-2-2-2-2-2-2-2-2-2-2-2-2-2-2-2-2-2-2-2-2-2-2-2-2-2-2-2-2-2-2-----|
D -4-4-4-4-4-4-4-4-2-2-2-2-2-2-2-2-0-0-0-0-0-0-0-0-0-0-0-0-0-0-0-0-----|

Bridge

(Yeah, I do...)

D ---------------------------------------------------------------------|
A ---------------------------------------------------------------------|
F -4---------------4---------------4---------------4-------------------|
C -4---------------4---------------4---------------4-------------------|
G -2---------------2---------------2---------------2-------------------|
D -2---------------0---------------2---------------0-------------------|

Chorus

(So tell me what you think...)

D ---------------------------------------------------------------------|
A ---------------------------------------------------------------------|
F -4-4-4-4-4-4--4--4-4-4-4-4-4-4-4-4-4-4-4-4-4-4-4-4-4-4-4-4-4-4-4-----|
C -4-4-4-4-4-4--4--4-4-4-4-4-4-4-4-4-4-4-4-4-4-4-4-4-4-4-4-4-4-4-4-----|
G -2-2-2-2-2-2--2--2-2-2-2-2-2-2-2-2-2-2-2-2-2-2-2-2-2-2-2-2-2-2-2-----|
D -4-4-4-4-4-4--2--0-0-0-0-0-0-0-0-x-x-x-x-x-x-x-x-x-x-x-x-x-x-2-2-----|

D ---------------------------------------------------------------------|
A ---------------------------------------------------------------------|
F -4-4-4-4-4-4--4--4-4-4-4-4-4-4-4-4-4-4-4-4-4-4-4-4-4-4-4-4-4-4-4-----|
C -4-4-4-4-4-4--4--4-4-4-4-4-4-4-4-4-4-4-4-4-4-4-4-4-4-4-4-4-4-4-4-----|
G -2-2-2-2-2-2--2--2-2-2-2-2-2-2-2-2-2-2-2-2-2-2-2-2-2-2-2-2-2-2-2-----|
D -4-4-4-4-4-4--2--0-0-0-0-0-0-0-0-x-x-x-x-x-x-x-x-x-x-x-x-x-x-2-2-----|

(Because I've got some things to do...)

D ---------------------------------------------------------------------|
A ---------------------------------------------------------------------|
F -4-4-4-4-4-4-4-4-4-4-4-4-4-4-4-4-4-4-4-4-4-4-4-4-4-4-4-4-4-4-4-4-----|
C -4-4-4-4-4-4-4-4-4-4-4-4-4-4-4-4-4-4-4-4-4-4-4-4-4-4-4-4-4-4-4-4-----|
G -2-2-2-2-2-2-2-2-2-2-2-2-2-2-2-2-2-2-2-2-2-2-2-2-2-2-2-2-2-2-2-2-----|
D -4-4-4-4-4-4-4-4-2-2-2-2-2-2-2-2-0-0-0-0-0-0-0-0-0-0-0-0-0-0-0-0-----|

D ---------------------------------------------------------------------|
A ---------------------------------------------------------------------|
F -4-4-4-4-4-4-4-4-4-4-4-4-4-4-4-4-4-4-4-4-4-4-4-4-4-4-4-4-4-4-4-4-----|
C -4-4-4-4-4-4-4-4-4-4-4-4-4-4-4-4-4-4-4-4-4-4-4-4-4-4-4-4-4-4-4-4-----|
G -2-2-2-2-2-2-2-2-2-2-2-2-2-2-2-2-2-2-2-2-2-2-2-2-2-2-2-2-2-2-2-2-----|
D -4-4-4-4-4-4-4-4-2-2-2-2-2-2-2-2-0-0-0-0-0-0-0-0-0-0-0-0-0-0-0-0-----|
Добавлено: 14.07.2012
Другие материалы по этой песне:
  • Аккорды и текст

Страница создана 14.07.2012
http://primanota.ru/the-dangerous-summer/this-is-war-chords.htm
Привет, Гость.
Предлагаем пройти революционный курс по гитаре.
Подарок от PrimaNota.Ru, забирай!