PrimaNota.ru - самый крупный в мире бесплатный архив песенных текстов, аккордов, табулатур и нот


The Dangerous Summer - Disconnect - таба, видео

Регистрация Запомнить меня
Войти через:  Facebook Google Twitter Vk Yandex Mail.ru

The Dangerous Summer - Disconnect - таба, видео

Печатать
Просмотров: 66
Tabbed by Tyler Reeves
Amazing song by an AMAZING band. Took me all day to figure it out. Second tab
ever. Might be a little sloppy.
Corrections are always appreciated!

Artist: The Dangerous Summer
Song: Disconnect (Acoustic)
Album: If You Could Only Keep Me Alive (Deluxe Version)


Tuning whole step down [D G C F A d]

Intro:
d------------------------------------------|
G--------------------------------------2---|
C------4--------4---------4--------4-----4-| [x4]
F----4---4----4---4-----4---4----4---4-----|
A-----------2------------------4-----------|
D--4------------------2--------------------|


d------------------------------------------|
G------------------------------------------|
C--4--4444--4--4444--4--4444--4--4444------|
F--4--4444--4--4444--4--4444--4--4444------| [x2]
A-----------2--2222-----------4--4444------|
D--4--4444-----------2--2222---------------|


d------------------------------------------|
G--------------------------------------2---|
C------4--------4---------4--------4-----4-|
F----4---4----4---4-----4---4----4---4-----|
A-----------2------------------4-----------|
D--4------------------2--------------------|


d------------------------------------------|
G------------------------------------------|
C------4--------4---------4-----4---4------|
F----4---4----4---4-----4---4---4---4------|
A-----------2-------------------4---4------|
D--4------------------2---------.----------|


d------------------------------------------|
G--------------------------------------2---|
C------4--------4---------4--------4-----4-| [x2]
F----4---4----4---4-----4---4----4---4-----|
A-----------2------------------4-----------|
D--4------------------2--------------------|

Pre-Chorus I:
[Listen to the timing on this part. Gets a little tricky.]
d------------------------------------------|
G------------------------------------------|
C--4~-----44444444--4~-----44xx4444--------|
F--4~-----44444444--2~-----44xx4444--------|
A--2~-----22222222--2~-----44xx4444--------|
D--2~-----22222222--0~-----........--------|


Chorus:
[Listen for exact strumming pattern]
d------------------------------------------|
G------------------------------------------|
C--44444444444444444444444444444444--------|
F--22222222444444444444444444444444--------|
A--22222222XXXXXXXX2222222244444444--------|     \
D--000000004444444422222222----------------|      \
                                                  \ [x2]
                                                  /
d------------------------------------------|      /
G------------------------------------------|     /
C--44444444444444444444444444444444--------|
F--22222222444444444444444444444444--------|
A--22222222XXXXXXXX2222222222222222--------|
D--00000000444444442222222222222222--------|


Verse:
d------------------------------------------|
G--------------------------------------2---|
C------4--------4---------4--------4-----4-| [x4]
F----4---4----4---4-----4---4----4---4-----|
A-----------2------------------4-----------|
D--4------------------2--------------------|


Pre-Chorus II:
d--------------------------|
G--------------------------|
C--4~----4~----4~----4~----|
F--4~----4~----4~----4~----| [x2]
A--------2~----------4~----|
D--4~----------2~----------|

[Listen for timing]
d-------------------|
G-------------------|
C--4~-------4-4-----|
F--2~-------4-4-----|
A--2~-------4-4-----|
D--0~-------.-.-----|


ChorusI:
[Listen for exact strumming pattern]
d------------------------------------------|
G------------------------------------------|
C--44444444444444444444444444444444--------|
F--22222222444444444444444444444444--------|
A--22222222XXXXXXXX2222222244444444--------|     \
D--000000004444444422222222----------------|      \
                                                  \ [x2]
                                                  /
d------------------------------------------|      /
G------------------------------------------|     /
C--44444444444444444444444444444444--------|
F--22222222444444444444444444444444--------|
A--22222222XXXXXXXX2222222222222222--------|
D--00000000444444442222222222222222--------|

Pre-Bridge/Verse[?]:
d-------------------|
G-------------------|
C--4~-------4444----|
F--2~-------4444----|
A--2~-------2222----|
D--0~-------2222----|

Bridge/Verse[?]:
d------------------------------------------2---------|
G------9---9-------4---4-------2-------2-----2---2---|
C----8---8---8---4---4---4---4---4---4---4-----4-----|
F--6-----------2-----------4-------4-----------------|  [x6]
A----------------------------------------------------|
D----------------------------------------------------|


Chorus[?] II:
[Listen for exact strumming pattern]
d------------------------------------------|
G------------------------------------------|
C--44444444444444444444444444444444--------|
F--44444444222222224444444444444444--------|
A--XXXXXXXX222222222222222244444444--------|     \
D--444444440000000022222222----------------|      \
                                                  \ [x2]
                                                  /
d------------------------------------------|      /
G------------------------------------------|     /
C--44444444444444444444444444444444--------|
F--44444444222222224444444444444444--------|
A--XXXXXXXX222222222222222222222222--------|
D--44444444000000002222222222222222--------|


Outro:
d------------------------------------------2---------|
G------9---9-------4---4-------2-------2-----2---2---|
C----8---8---8---4---4---4---4---4---4---4-----4-----|
F--6-----------2-----------4-------4-----------------|
A----------------------------------------------------|
D----------------------------------------------------|

d------------------------------------------2---------|
G------9---9-------4---4-------2-------2-------------|
C----8---8---8---4---4---4---4---4---4---4-----------|
F--6-----------2-----------4-------4-----------------|
A----------------------------------------------------|
D----------------------------------------------------|


Key:
. = Play short
~ = Let ring
Добавлено: 14.07.2013
Вам также может быть интересно:
Другие материалы по этой песне:
  • Аккорды и текст

Страница создана 14.07.2013
http://primanota.ru/the-dangerous-summer/disconnect-chords.htm
Привет, Гость.
Предлагаем пройти революционный курс по гитаре.
Подарок от PrimaNota.Ru, забирай!