PrimaNota.ru - самый крупный в мире бесплатный архив песенных текстов, аккордов, табулатур и нот


The Damned Things - Ironiclast - таба, видео

Регистрация Запомнить меня
Войти через:  Facebook Google Twitter Vk Yandex Mail.ru

The Damned Things - Ironiclast - таба, видео

Печатать
Просмотров: 58
Not a very hard song to play, except the timing maybe, anyway, it's my first tab but I'm 
pretty sure this is
100% correct!

Intro:
---------------------------------------|
---------------------------------------|
---------------------------------------|
1-000000000000000--------0-1-1-1-0-----|
1-000000000000000--5-3-1-0-1-1-1-0-----|
1-000000000000000--------0-1-1-1-0-----|

the other riff:

---------------------------------------|
---------------------------------------|
---------------------------------------|
1-000000000000000---3----------------0-|
1-000000000000000---3--------5-3-5-6-0-|
1-000000000000000---3--5-3-5---------0-|

those two riffs are the song, basically.

Post-Chorus Or Whatever:
---------------------------------------|
---------------------------------------|
---------------------------------------|
-3333333333333-555555555555555---------|
-3333333333333-555555555555555---------|
-3333333333333-555555555555555---------|
"I've got a right to know"


That's it basically!
Добавлено: 11.08.2015
Другие материалы по этой песне:

Страница создана 20.06.2012
http://primanota.ru/the-damned-things/ironiclast-chords.htm
Привет, Гость.
Предлагаем пройти революционный курс по гитаре.
Подарок от PrimaNota.Ru, забирай!