PrimaNota.ru - самый крупный в мире бесплатный архив песенных текстов, аккордов, табулатур и нот


The Damned Things - Friday Night Going Down In Flames - таба, видео

Регистрация Запомнить меня
Войти через:  Facebook Google Twitter Vk Yandex Mail.ru

The Damned Things - Friday Night Going Down In Flames - таба, видео

Печатать
Просмотров: 91
----------------------------------------------------------------------------
                       Friday Night (Going Down In Flames)
                               The Damned Things
----------------------------------------------------------------------------

After making a 3 piece guitar cover for this song, I got suggestions to post the tabs. I
don't blame them! This song was hard to render, and took more than what i hoped, but it
was worth it. I did my best, but if you get stuck on any parts, just check out my cover 
for visual aid. Enjoy!

Username: dkm817 (same on X box live)
Youtube Guitar Cover: http://www.youtube.com/watch?v=8ZoLFx1G5Sk
Email: guitardrums@rockfan.com

(Tab Legend at bottom)
Guitar 1 Rhythmic (C# G# C# F# A# D#)
Guitar 2 Rhythmic (C# G# C# F# A# D#)
Guitar 3 Lead     (C# G# C# F# A# D#)

Intro 1========================================================


Guitar 1
D#-------------------------------------------------------------|
A#-------------------------------------------------------------|
F#-7~~~~~~~~~~-7---7\--5---7-----------------------------------|
C#-7~~~~~~~~~~-7---7\--5---7---------------5---7~~~~~~~~~~~~~~-|
G#-5~~~~~~~~~~-5---5\--3---5-------3---5-----------------------|
C#-------------------------------------------------------------|

Guitar 2
D#-------------------------------------------------------------|
A#-------------------------------------------------------------|
F#-7~~~~~~~~~~-7---7\--5---7-----------------------------------|
C#-x-----------x---x\--x---x---------------5---7~~~~~~~~~~~~~~-|
G#-5~~~~~~~~~~-5---5\--3---5-------3---5-----------------------|
C#-------------------------------------------------------------|


Guitar 1
D#-------------------------------------------------------------|
A#-------------------------------------------------------------|
F#-7~~~~~~~~~~-7---7\--5---7-----------------------5~~~~~~~~~~-|
C#-7~~~~~~~~~~-7---7\--5---7---------------5---7---------------|
G#-5~~~~~~~~~~-5---5\--3---5-------3---5-----------------------|
C#-------------------------------------------------------------|

Guitar 2
D#-------------------------------------------------------------|
A#-------------------------------------------------6~~~~~~~~~~-|
F#-7~~~~~~~~~~-7---7\--5---7---------------5---7---------------|
C#-x-----------x---x\--x---x-------5---7-----------------------|
G#-5~~~~~~~~~~-5---5\--3---5-----------------------------------|
C#-------------------------------------------------------------|


Guitar 1
D#-------------------------------------------------------------|
A#-------------------------------------------------------------|
F#-7~~~~~~~~~~-7---7\--5---7---------------------------7---5---|
C#-7~~~~~~~~~~-7---7\--5---7-------x---x-------x---x---7---5---|
G#-5~~~~~~~~~~-5---5\--3---5-------x---x-------x---x---5---3---|
C#---------------------------------x---x-------x---x-----------|

Guitar 2
D#-------------------------------------------------------------|
A#-------------------------------------------------------------|
F#-7~~~~~~~~~~-7---7\--5---7---------------------------7---5---|
C#-x~~~~~~~~~~-x---x\--x---7-------x---x-------x---x---x---x---|
G#-5~~~~~~~~~~-5---5\--3---5-------x---x-------x---x---5---3---|
C#---------------------------------x---x-------x---x-----------|


Guitar 1
D#-------------------------------------------------------------|
A#-------------------------------------------------------------|
F#-------------------------------------------------------------|
C#/8~~~~~~~~~~-8---8---8---8---8---8---------------------------|
G#/8~~~~~~~~~~-8---8---8---8---8---8---10p-8-------------------|
C#/8~~~~~~~~~~-8---8---8---8---8---8-----------8---10~~~~~~~~~-|

Guitar 2
D#-------------------------------------------------------------|
A#-------------------------------------------------------------|
F#-------------------------------------------------------------|
C#/8~~~~~~~~~~-8---8---8---8---8---8---8p--7-------------------|
G#/8~~~~~~~~~~-8---8---8---8---8---8---------------------------|
C#/8~~~~~~~~~~-8---8---8---8---8---8-----------8---10~~~~~~~~~-|


Guitar 1
D#-------------------------------------------------------------|
A#-------------------------------------------------------------|
F#-7~~~~~~~~~~-7---7\--5---7-----------------------------------|
C#-7~~~~~~~~~~-7---7\--5---7---------------5---7~~~~~~~~~~~~~~-|
G#-5~~~~~~~~~~-5---5\--3---5-------3---5-----------------------|
C#-------------------------------------------------------------|

Guitar 2
D#-------------------------------------------------------------|
A#-------------------------------------------------------------|
F#-7~~~~~~~~~~-7---7\--5---7-----------------------------------|
C#-x-----------x---x\--x---x---------------5---7~~~~~~~~~~~~~~-|
G#-5~~~~~~~~~~-5---5\--3---5-------3---5-----------------------|
C#-------------------------------------------------------------|

Guitar 3
D#-------------------------------------------------------------|
A#-------------------------------------------------------------|
F#/14~~~~~~~~~~~~~~~~~~~~~-12~~~~~-----------------------------|
C#---------------------------------10--12--14--12--10--12---0--|
G#-------------------------------------------------------------|
C#-------------------------------------------------------------|
Pm                                                          .


Guitar 1
D#-------------------------------------------------------------|
A#-------------------------------------------------------------|
F#-7~~~~~~~~~~-7---7\--5---7-----------------------5~~~~~~~~~~-|
C#-7~~~~~~~~~~-7---7\--5---7---------------5---7---------------|
G#-5~~~~~~~~~~-5---5\--3---5-------3---5-----------------------|
C#-------------------------------------------------------------|

Guitar 2
D#-------------------------------------------------------------|
A#-------------------------------------------------6~~~~~~~~~~-|
F#-7~~~~~~~~~~-7---7\--5---7---------------5---7---------------|
C#-x-----------x---x\--x---x-------5---7-----------------------|
G#-5~~~~~~~~~~-5---5\--3---5-----------------------------------|
C#-------------------------------------------------------------|

Guitar 3
D#-------------------------------------------------------------|
A#-------------------------------------------------------------|
F#-----------------10------12----------------------10--10~~~~~-|
C#-10--0---12--0-------0-------0---10--0---12--0---------------|
G#-------------------------------------------------------------|
C#-------------------------------------------------------------|
Pm     .       .       .       .       .       .


Guitar 1
D#-------------------------------------------------------------|
A#-------------------------------------------------------------|
F#-7~~~~~~~~~~-7---7\--5---7---------------------------7---5---|
C#-7~~~~~~~~~~-7---7\--5---7-------x---x-------x---x---7---5---|
G#-5~~~~~~~~~~-5---5\--3---5-------x---x-------x---x---5---3---|
C#---------------------------------x---x-------x---x-----------|

Guitar 2
D#-------------------------------------------------------------|
A#-------------------------------------------------------------|
F#-7~~~~~~~~~~-7---7\--5---7---------------------------7---5---|
C#-x~~~~~~~~~~-x---x\--x---7-------x---x-------x---x---x---x---|
G#-5~~~~~~~~~~-5---5\--3---5-------x---x-------x---x---5---3---|
C#---------------------------------x---x-------x---x-----------|

Guitar 3
D#-------------------------------------------------------------|
A#-------------------------------------------------------------|
F#/14~~~~~~~~~~~~~~~~~~~~~-12~~~~~-9h10h12p10p9----14----12----|
C#-------------------------------------------------------------|
G#-------------------------------------------------------------|
C#-------------------------------------------------------------|


Guitar 1
D#-------------------------------------------------------------|
A#-------------------------------------------------------------|
F#-------------------------------------------------------------|
C#/8~~~~~~~~~~-8---8---8---8---8---8---------------------------|
G#/8~~~~~~~~~~-8---8---8---8---8---8---10p-8-------------------|
C#/8~~~~~~~~~~-8---8---8---8---8---8-----------8---10~~~~~~~~~-|

Guitar 2
D#-------------------------------------------------------------|
A#-------------------------------------------------------------|
F#-------------------------------------------------------------|
C#/8~~~~~~~~~~-8---8---8---8---8---8---8p--7-------------------|
G#/8~~~~~~~~~~-8---8---8---8---8---8---------------------------|
C#/8~~~~~~~~~~-8---8---8---8---8---8-----------8---10~~~~~~~~~-|

Guitar 3
D#-------------------------------------------------------------|
A#---------------------------------------13h15p13--------------|
F#/10~~~~~~~~~-10--10~~~~~-12~~b~~r~-14-----------14-10h12h14--|
C#-------------------------------------------------------------|
G#-------------------------------------------------------------|
C#-------------------------------------------------------------|


Verse 1========================================================


Guitar 1 & 2
D#-------------------------------------------------------------|
A#-------------------------------------------------------------|
F#-7~~~~~~~~~~-7---7\--5---7-----------------------------------|
C#-7~~~~~~~~~~-7---7\--5---7---x---x-----x---x---x-----x---x---|
G#-5~~~~~~~~~~-5---5\--3---5---x---x-----x---x---x-----x---x---|
C#-----------------------------x---x-----x---x---x-----x---x---|


Guitar 1 & 2
D#-------------------------------------------------------------|
A#-------------------------------------------------------------|
F#-7~~~~~~~~~~-7---7\--5---7-----------------------------------|
C#-7~~~~~~~~~~-7---7\--5---7---x---x-----x---x---x-----x---x---|
G#-5~~~~~~~~~~-5---5\--3---5---x---x-----x---x---x-----x---x---|
C#-----------------------------x---x-----x---x---x-----x---x---|


Guitar 1 & 2
D#-------------------------------------------------------------|
A#-------------------------------------------------------------|
F#-7~~~~~~~~~~-7---7\--5---7---------------------------7---5---|
C#-7~~~~~~~~~~-7---7\--5---7-------x---x-------x---x---7---5---|
G#-5~~~~~~~~~~-5---5\--3---5-------x---x-------x---x---5---3---|
C#---------------------------------x---x-------x---x-----------|


Guitar 1 & 2
D#-------------------------------------------------------------|
A#-------------------------------------------------------------|
F#-------------------------------------------------------------|
C#/8~~~~~~~~~~-8---8---8---8---8---8---------------------------|
G#/8~~~~~~~~~~-8---8---8---8---8---8---10p-8-------------------|
C#/8~~~~~~~~~~-8---8---8---8---8---8-----------8---10~~~~~~~~~-|


Guitar 1 & 2
D#-------------------------------------------------------------|
A#-------------------------------------------------------------|
F#-7~~~~~~~~~~-7---7\--5---7-----------------------------------|
C#-7~~~~~~~~~~-7---7\--5---7---x---x-----x---x---x-----x---x---|
G#-5~~~~~~~~~~-5---5\--3---5---x---x-----x---x---x-----x---x---|
C#-----------------------------x---x-----x---x---x-----x---x---|


Guitar 1 & 2
D#-------------------------------------------------------------|
A#-------------------------------------------------------------|
F#-7~~~~~~~~~~-7---7\--5---7---------------------------7---5---|
C#-7~~~~~~~~~~-7---7\--5---7-------x---x-------x---x---7---5---|
G#-5~~~~~~~~~~-5---5\--3---5-------x---x-------x---x---5---3---|
C#---------------------------------x---x-------x---x-----------|


Guitar 1 & 2
D#-------------------------------------------------------------|
A#-------------------------------------------------------------|
F#-7~~~~~~~~~~-7---7\--5---7---------------------------7---5---|
C#-7~~~~~~~~~~-7---7\--5---7-------x---x-------x---x---7---5---|
G#-5~~~~~~~~~~-5---5\--3---5-------x---x-------x---x---5---3---|
C#---------------------------------x---x-------x---x-----------|


Guitar 1 & 2
D#-------------------------------------------------------------|
A#-------------------------------------------------------------|
F#-------------------------------------------------------------|
C#/8~~~~~~~~~~-8---8---8---8---8---8---------------------------|
G#/8~~~~~~~~~~-8---8---8---8---8---8---10p-8-------------------|
C#/8~~~~~~~~~~-8---8---8---8---8---8-----------8---10~~~~~~~~~-|


Pre Chorus 1===================================================


Guitar 1
D#-------------------------------------------------------------|
A#-------------------------------------------------------------|
F#-------------------------------------------------------------|
C#-------------------------------------------------------------|
G#---------------------------------------------8---5~~~~~~-----|
C#-5~~~~~~~~~~~~~~~~~~~~~~~~~~~~~~~~~~-5---7---------------7---|

Guitar 2
D#-------------------------------------------------------------|
A#-------------------------------------------------------------|
F#-------------------------------------------------------------|
C#---------------------------------------------2---3~~~~~~-----|
G#-1~~~~~~~~~~~~~~~~~~~~~~~~~~~~~~~~~~-1---3---------------3---|
C#-------------------------------------------------------------|


Guitar 1
D#--------------------------------------------------------------|
A#--------------------------------------------------------------|
F#--------------------------------------------------------------|
C#--------------------------------------------------------------|
G#-------------------------------------------------7---7h8p7----|
C#-8~~~~~~~~~~~~~~~~~~~~~~~~~~~~~~~~~~-7---7---7-------------10-|

Guitar 2
D#-------------------------------------------------------------|
A#-------------------------------------------------------------|
F#-------------------------------------------------------------|
C#-------------------------------------------------5---5h7p5---|
G#-5~~~~~~~~~~~~~~~~~~~~~~~~~~~~~~~~~~-3---3---3-------------7-|
C#-------------------------------------------------------------|


Chorus 1===========================================================


Guitar 1 & 2
D#-----------------------------------------------------------------|
A#-----------------------------------------------------------------|
F#-7~~~~~~-7---7~~~~~~-7---7---7-----------------------------------|
C#-7~~~~~~-7---7~~~~~~-7---7---7---7~~~~~~-7---7~~~~~~-7---7---7---|
G#-5~~~~~~-5---5~~~~~~-5---5---5---7~~~~~~-7---7~~~~~~-7---7---7---|
C#---------------------------------7~~~~~~-7---7~~~~~~-7---7---7---|

Guitar 3
D#-----------------------------------------------------------------|
A#-------------15~~~~~-16~~~~~-15--------------15~~~~~-16~~~~~-15--|
F#-17~~~~~~~~~-----------------------------------------------------|
C#---------------------------------17~~~~~~~~~---------------------|
G#-----------------------------------------------------------------|
C#-----------------------------------------------------------------|


Guitar 1
D#------------------------------------------------------------------|
A#------------------------------------------------------------------|
F#------------------------------------------------------------------|
C#-8~~~~~~-8---8~~~~~~-8---8---8---8---8----------------------------|
G#-8~~~~~~-8---8~~~~~~-8---8---8---8---8---------------7---7h8p7----|
C#-8~~~~~~-8---8~~~~~~-8---8---8---8---8---7---7---7-------------10-|

Guitar 2
D#-----------------------------------------------------------------|
A#-----------------------------------------------------------------|
F#-----------------------------------------------------------------|
C#-8~~~~~~-8---8~~~~~~-8---8---8---8---8---------------5---5h7p5---|
G#-8~~~~~~-8---8~~~~~~-8---8---8---8---8---3---3---3-------------7-|
C#-8~~~~~~-8---8~~~~~~-8---8---8---8---8---------------------------|

Guitar 3
D#-----------------------------------------------------------------|
A#-------------15~~~~~-16~~~~~-15~~~~~---------15~~~~~-16~~~~~-15--|
F#-15~~~~~~~~~-------------------------15~~~~~---------------------|
C#-----------------------------------------------------------------|
G#-----------------------------------------------------------------|
C#-----------------------------------------------------------------|


Guitar 1 & 2
D#-----------------------------------------------------------------|
A#-----------------------------------------------------------------|
F#-7~~~~~~-7---7~~~~~~-7---7---7-----------------------------------|
C#-7~~~~~~-7---7~~~~~~-7---7---7---7~~~~~~-7---7~~~~~~-7---7---7---|
G#-5~~~~~~-5---5~~~~~~-5---5---5---7~~~~~~-7---7~~~~~~-7---7---7---|
C#---------------------------------7~~~~~~-7---7~~~~~~-7---7---7---|

Guitar 3
D#-----------------------------------------------------------------|
A#-------------15~~~~~-16~~~~~-15--------------15~~~~~-16~~~~~-15--|
F#-17~~~~~~~~~-----------------------------------------------------|
C#---------------------------------17~~~~~~~~~---------------------|
G#-----------------------------------------------------------------|
C#-----------------------------------------------------------------|


Guitar 1
D#-----------------------------------------------------------------|
A#-----------------------------------------------------------------|
F#-----------------------------------------------------------------|
C#-8~~~~~~-8---8~~~~~~-8---8---8---8---3---5---3---0---5---3---0---|
G#-8~~~~~~-8---8~~~~~~-8---8---8---8---3---5---3---0---5---3---0---|
C#-8~~~~~~-8---8~~~~~~-8---8---8---8---3---5---3---0---5---3---0---|

Guitar 2
D#-----------------------------------------------------------------|
A#-----------------------------------------------------------------|
F#-----------------------------------------------------------------|
C#-8~~~~~~-8---8~~~~~~-8---8---8---8---3---5---3---0---5---x---x---|
G#-8~~~~~~-8---8~~~~~~-8---8---8---8---3---5---3---0---5---x---x---|
C#-8~~~~~~-8---8~~~~~~-8---8---8---8---3---5---3---0---5---x---x---|

Guitar 3
D#-----------------------------------------------------------------|
A#-------------15~~~~~-16~~~~~-15~~~~~---------15~~~~~-16~~~~~-15--|
F#-15~~~~~~~~~-------------------------15~~~~~---------------------|
C#-----------------------------------------------------------------|
G#-----------------------------------------------------------------|
C#-----------------------------------------------------------------|


Guitar 1 & 2
D#-----------------------------------------------------------------|
A#-----------------------------------------------------------------|
F#-7~~~~~~-7---7~~~~~~-7---7---7-----------------------------------|
C#-7~~~~~~-7---7~~~~~~-7---7---7---7~~~~~~-7---7~~~~~~-7---7---7---|
G#-5~~~~~~-5---5~~~~~~-5---5---5---7~~~~~~-7---7~~~~~~-7---7---7---|
C#---------------------------------7~~~~~~-7---7~~~~~~-7---7---7---|

Guitar 3
D#-----------------------------------------------------------------|
A#-------------15~~~~~-16~~~~~-15--------------15~~~~~-16~~~~~-15--|
F#-17~~~~~~~~~-----------------------------------------------------|
C#---------------------------------17~~~~~~~~~---------------------|
G#-----------------------------------------------------------------|
C#-----------------------------------------------------------------|


Guitar 1
D#------------------------------------------------------------------|
A#------------------------------------------------------------------|
F#------------------------------------------------------------------|
C#-8~~~~~~-8---8~~~~~~-8---8---8---8---8----------------------------|
G#-8~~~~~~-8---8~~~~~~-8---8---8---8---8---------------7---7h8p7----|
C#-8~~~~~~-8---8~~~~~~-8---8---8---8---8---7---7---7-------------10-|

Guitar 2
D#-----------------------------------------------------------------|
A#-----------------------------------------------------------------|
F#-----------------------------------------------------------------|
C#-8~~~~~~-8---8~~~~~~-8---8---8---8---8---------------5---5h7p5---|
G#-8~~~~~~-8---8~~~~~~-8---8---8---8---8---3---3---3-------------7-|
C#-8~~~~~~-8---8~~~~~~-8---8---8---8---8---------------------------|

Guitar 3
D#-----------------------------------------------------------------|
A#-------------15~~~~~-16~~~~~-15~~~~~---------15~~~~~-16~~~~~-15--|
F#-15~~~~~~~~~-------------------------15~~~~~---------------------|
C#-----------------------------------------------------------------|
G#-----------------------------------------------------------------|
C#-----------------------------------------------------------------|


Guitar 1
D#-----------------------------------------------------------------|
A#-----------------------------------------------------------------|
F#-----------------------------------------------------------------|
C#-5~~~~~~-5---5---5---5---5---5---5---5---5---5---5---5---5---5---|
G#-5~~~~~~-5---5---5---5---5---5---5---5---5---5---5---5---5---5---|
C#-5~~~~~~-5---5---5---5---5---5---5---5---5---5---5---5---5---5---|

Guitar 2
D#-----------------------------------------------------------------|
A#-----------------------------------------------------------------|
F#-7~~~~~~-7---7---7---7---7---7---7---7---7---7---7---7---7---7---|
C#-----------------------------------------------------------------|
G#-----------------------------------------------------------------|
C#-----------------------------------------------------------------|

Guitar 3
D#-----------------------------------------------------------------|
A#-------------15~~~~~-16~~~~~-----------------15~~~~~-16~~~~~-15--|
F#-17~~~~~~~~~-----------------17--17~~~~~~~~~---------------------|
C#-----------------------------------------------------------------|
G#-----------------------------------------------------------------|
C#-----------------------------------------------------------------|


Guitar 1
D#-----------------------------------------------------------------|
A#-----------------------------------------------------------------|
F#-----------------------------------------------------------------|
C#-7~~~~~~-7---7---7---7---7---7---7---7---7---7---7---7---7---7---|
G#-7~~~~~~-7---7---7---7---7---7---7---7---7---7---7---7---7---7---|
C#-7~~~~~~-7---7---7---7---7---7---7---7---7---7---7---7---7---7---|

Guitar 2 (Gradually bend and return)
D#-----------------------------------------------------------------|
A#-----------------------------------------------------------------|
F#-9~~~~~~-9---9---9---9---9---9b--9b--9b--9b--9b--9b--9b--9r--9r--|
C#-----------------------------------------------------------------|
G#-----------------------------------------------------------------|
C#-----------------------------------------------------------------|

Guitar 3
D#-----------------------------------------------------------------|
A#-------------15~~~~~-16~~~~~-15~~~~~---------15~~~~~-16~~~~~-15--|
F#-----------------------------------------------------------------|
C#-17~~~~~~~~~-------------------------17~~~~~---------------------|
G#-----------------------------------------------------------------|
C#-----------------------------------------------------------------|


Break Off 1====================================================


Guitar 1
D#-------------------------------------------------------------|
A#-------------------------------------------------------------|
F#-------------------------------------------------------------|
C#-0\----------------------------------------------------------|
G#-0\----------------------------------------------------------|
C#-0\----------------------------------------------------------|

Guitar 2
D#-------------------------------------------------------------|
A#-------------------------------------------------------------|
F#-------------------------------------------------------------|
C#-------------------------------------------------------------|
G#-5\----------------------------------------------------------|
C#-------------------------------------------------------------|


Guitar 1
D#-------------------------------------------------------------|
A#-------------------------------------------------------------|
F#-7~~~~~~~~~~-7---7\--5---7-----------------------------------|
C#-7~~~~~~~~~~-7---7\--5---7---------------5---7~~~~~~~~~~~~~~-|
G#-5~~~~~~~~~~-5---5\--3---5-------3---5-----------------------|
C#-------------------------------------------------------------|

Guitar 2
D#-------------------------------------------------------------|
A#-------------------------------------------------------------|
F#-7~~~~~~~~~~-7---7\--5---7-----------------------------------|
C#-x-----------x---x\--x---x---------------5---7~~~~~~~~~~~~~~-|
G#-5~~~~~~~~~~-5---5\--3---5-------3---5-----------------------|
C#-------------------------------------------------------------|

Guitar 3
D#-------------------------------------------------------------|
A#-------------------------------------------------------------|
F#/14~~~~~~~~~~~~~~~~~~~~~-12~~~~~--------------------------x--|
C#---------------------------------10--12--14--12--10--12---x--|
G#----------------------------------------------------------x--|
C#-------------------------------------------------------------|


Guitar 1
D#-------------------------------------------------------------|
A#-------------------------------------------------------------|
F#-7~~~~~~~~~~-7---7\--5---7-----------------------5~~~~~~~~~~-|
C#-7~~~~~~~~~~-7---7\--5---7---------------5---7---------------|
G#-5~~~~~~~~~~-5---5\--3---5-------3---5-----------------------|
C#-------------------------------------------------------------|

Guitar 2
D#-------------------------------------------------------------|
A#-------------------------------------------------6~~~~~~~~~~-|
F#-7~~~~~~~~~~-7---7\--5---7---------------5---7---------------|
C#-x-----------x---x\--x---x-------5---7-----------------------|
G#-5~~~~~~~~~~-5---5\--3---5-----------------------------------|
C#-------------------------------------------------------------|

Guitar 3
D#-------------------------------------------------------------|
A#-------------------------------------------------------------|
F#-10--10--10--x---12--10--10--x---9---10--10--9---10~~~~~~~~~-|
C#-10--10--10--x---10--10--10--x---10--10--10--10--10~~~~~~~~~-|
G#-------------x---------------x-------------------------------|
C#-------------------------------------------------------------|


Guitar 1
D#-------------------------------------------------------------|
A#-------------------------------------------------------------|
F#-7~~~~~~~~~~-7---7\--5---7---------------------------7---5---|
C#-7~~~~~~~~~~-7---7\--5---7-------x---x-------x---x---7---5---|
G#-5~~~~~~~~~~-5---5\--3---5-------x---x-------x---x---5---3---|
C#---------------------------------x---x-------x---x-----------|

Guitar 2
D#-------------------------------------------------------------|
A#-------------------------------------------------------------|
F#-7~~~~~~~~~~-7---7\--5---7---------------------------7---5---|
C#-x~~~~~~~~~~-x---x\--x---7-------x---x-------x---x---x---x---|
G#-5~~~~~~~~~~-5---5\--3---5-------x---x-------x---x---5---3---|
C#---------------------------------x---x-------x---x-----------|

Guitar 3
D#-------------------------------------------------------------|
A#-------------------------------------------------------------|
F#/14~~~~~~~~~~~~~~~~~~~~~-12~~~~~-9h10h12p10p9----14----12----|
C#-------------------------------------------------------------|
G#-------------------------------------------------------------|
C#-------------------------------------------------------------|


Guitar 1
D#-------------------------------------------------------------|
A#-------------------------------------------------------------|
F#-------------------------------------------------------------|
C#/8~~~~~~~~~~-8---8---8---8---8---8---------------------------|
G#/8~~~~~~~~~~-8---8---8---8---8---8---10p-8-------------------|
C#/8~~~~~~~~~~-8---8---8---8---8---8-----------8---10~~~~~~~~~-|

Guitar 2
D#-------------------------------------------------------------|
A#-------------------------------------------------------------|
F#-------------------------------------------------------------|
C#/8~~~~~~~~~~-8---8---8---8---8---8---8p--7-------------------|
G#/8~~~~~~~~~~-8---8---8---8---8---8---------------------------|
C#/8~~~~~~~~~~-8---8---8---8---8---8-----------8---10~~~~~~~~~-|

Guitar 3
D#-------------------------------------------------------------|
A#-------------------------------------------------------------|
F#/10~~~~~~~~~-10--10~~~~~------------------------/12~~~~~~~~~-|
C#-------------------------12--10\~~~~~~~~~~~~-----------------|
G#-------------------------------------------------------------|
C#-------------------------------------------------------------|


Verse 2========================================================


Guitar 1 & 2
D#-------------------------------------------------------------|
A#-------------------------------------------------------------|
F#-7~~~~~~~~~~-7---7\--5---7-----------------------------------|
C#-7~~~~~~~~~~-7---7\--5---7---x---x-----x---x---x-----x---x---|
G#-5~~~~~~~~~~-5---5\--3---5---x---x-----x---x---x-----x---x---|
C#-----------------------------x---x-----x---x---x-----x---x---|


Guitar 1 & 2
D#-------------------------------------------------------------|
A#-------------------------------------------------------------|
F#-7~~~~~~~~~~-7---7\--5---7---------------------------7---5---|
C#-7~~~~~~~~~~-7---7\--5---7-------x---x-------x---x---7---5---|
G#-5~~~~~~~~~~-5---5\--3---5-------x---x-------x---x---5---3---|
C#---------------------------------x---x-------x---x-----------|


Guitar 1 & 2
D#-------------------------------------------------------------|
A#-------------------------------------------------------------|
F#-7~~~~~~~~~~-7---7\--5---7---------------------------7---5---|
C#-7~~~~~~~~~~-7---7\--5---7-------x---x-------x---x---7---5---|
G#-5~~~~~~~~~~-5---5\--3---5-------x---x-------x---x---5---3---|
C#---------------------------------x---x-------x---x-----------|


Guitar 1
D#-------------------------------------------------------------|
A#-------------------------------------------------------------|
F#-------------------------------------------------------------|
C#/8~~~~~~~~~~-8---8---8---8---8---8---------------------------|
G#/8~~~~~~~~~~-8---8---8---8---8---8---10p-8-------------------|
C#/8~~~~~~~~~~-8---8---8---8---8---8-----------8---10~~~~~~~~~-|

Guitar 2
D#-------------------------------------------------------------|
A#-------------------------------------------------------------|
F#-------------------------------------------------------------|
C#/8~~~~~~~~~~-8---8---8---8---8---8---x---x---x---x---x---x---|
G#/8~~~~~~~~~~-8---8---8---8---8---8---x---x---x---x---x---x---|
C#/8~~~~~~~~~~-8---8---8---8---8---8---x---x---x---x---x---x---|


Guitar 1
D#-------------------------------------------------------------|
A#-------------------------------------------------------------|
F#-7~~~~~~~~~~-7---7\--5---7-----------------------------------|
C#-7~~~~~~~~~~-7---7\--5---7---x---x-----x---x---x-----x---x---|
G#-5~~~~~~~~~~-5---5\--3---5---x---x-----x---x---x-----x---x---|
C#-----------------------------x---x-----x---x---x-----x---x---|

Guitar 2
D#-------------------------------------------------------------|
A#-6~~~~~~~~~~-6---6\--4---6-----------------------------------|
F#-7~~~~~~~~~~-7---7\--5---7-----------------------------------|
C#-----------------------------x---x---x---x---x-------x---x---|
G#-----------------------------x---x---x---x---x-------x---x---|
C#-----------------------------x---x---x---x---x-------x---x---|


Guitar 1
D#-------------------------------------------------------------|
A#-------------------------------------------------------------|
F#-7~~~~~~~~~~-7---7\--5---7-----------------------------------|
C#-7~~~~~~~~~~-7---7\--5---7---x---x-----x---x---x-----x---x---|
G#-5~~~~~~~~~~-5---5\--3---5---x---x-----x---x---x-----x---x---|
C#-----------------------------x---x-----x---x---x-----x---x---|

Guitar 2
D#-------------------------------------------------------------|
A#-6~~~~~~~~~~-6---6\--4---6-----------------------------------|
F#-7~~~~~~~~~~-7---7\--5---7-----------------------------------|
C#-----------------------------x---x-----x---x---x-----x---x---|
G#-----------------------------x---x-----x---x---x-----x---x---|
C#-----------------------------x---x-----x---x---x-----x---x---|


Guitar 1
D#-------------------------------------------------------------|
A#-------------------------------------------------------------|
F#-7~~~~~~~~~~-7---7\--5---7---------------------------7---5---|
C#-7~~~~~~~~~~-7---7\--5---7-------x---x-------x---x---7---5---|
G#-5~~~~~~~~~~-5---5\--3---5-------x---x-------x---x---5---3---|
C#---------------------------------x---x-------x---x-----------|


Guitar 2
D#-------------------------------------------------------------|
A#-6~~~~~~~~~~-6---6\--4---6-----------------------------------|
F#-7~~~~~~~~~~-7---7\--5---7-----------------------------------|
C#-----------------------------x---x-----x---x---x-----x---x---|
G#-----------------------------x---x-----x---x---x-----x---x---|
C#-----------------------------x---x-----x---x---x-----x---x---|

Guitar 3
D#-------------------------------------------------------------|
A#-------------15b~~~~-13~~~---15~~~~-13--10--13--15~~~~~~-----|
F#---------------------------------------------------------10--|
C#-------------------------------------------------------------|
G#-------------------------------------------------------------|
C#-------------------------------------------------------------|


Guitar 1
D#-------------------------------------------------------------|
A#-------------------------------------------------------------|
F#-------------------------------------------------------------|
C#/8~~~~~~~~~~-8---8---8---8---8---8---------------------------|
G#/8~~~~~~~~~~-8---8---8---8---8---8---10p-8-------------------|
C#/8~~~~~~~~~~-8---8---8---8---8---8-----------8---10~~~~~~~~~-|

Guitar 2
D#-------------------------------------------------9---10--9---|
A#-------------------------------------------------------------|
F#-10--12--10----------------------10--12--10------------------|
C#-------------12--10--12--10--12-------------12---------------|
G#-------------------------------------------------------------|
C#-------------------------------------------------------------|

Guitar 3
D#-------------------------------------------------------------|
A#-------------------------------------------------------------|
F#-10--12--10----------------------10--12--10------------------|
C#-------------12--10--12--10--12--------------12--10--12--10--|
G#-------------------------------------------------------------|
C#-------------------------------------------------------------|


Pre Chorus 2===================================================


Guitar 1
D#-------------------------------------------------------------|
A#-------------------------------------------------------------|
F#-------------------------------------------------------------|
C#-------------------------------------------------------------|
G#---------------------------------------------8---5~~~~~~-----|
C#-5~~~~~~~~~~~~~~~~~~~~~~~~~~~~~~~~~~-5---7---------------7---|

Guitar 2
D#-10~~~~~~~~~~~\~~--------------------------------------------|
A#-------------------------------------------------------------|
F#-------------------------------------------------------------|
C#---------------------------------------------2---3~~~~~~-----|
G#-------------------------------------1---3---------------3---|
C#-------------------------------------------------------------|

Guitar 3
D#-------------------------------------------------------------|
A#-------------------------------------------------------------|
F#-------------------------------------------------------------|
C#-12~~~~~~~~~~~\~~--------------------------------------------|
G#-------------------------------------------------------------|
C#-------------------------------------------------------------|


Guitar 1
D#--------------------------------------------------------------|
A#--------------------------------------------------------------|
F#--------------------------------------------------------------|
C#--------------------------------------------------------------|
G#-------------------------------------------------7---7h8p7----|
C#-8~~~~~~~~~~~~~~~~~~~~~~~~~~~~~~~~~~-7---7---7-------------10-|

Guitar 2
D#-------------------------------------------------------------|
A#-------------------------------------------------------------|
F#-------------------------------------------------------------|
C#-------------------------------------------------5---5h7p5---|
G#-5~~~~~~~~~~~~~~~~~~~~~~~~~~~~~~~~~~-3---3---3-------------7-|
C#-------------------------------------------------------------|


Chorus 1===========================================================


Guitar 1 & 2
D#-----------------------------------------------------------------|
A#-----------------------------------------------------------------|
F#-7~~~~~~-7---7~~~~~~-7---7---7-----------------------------------|
C#-7~~~~~~-7---7~~~~~~-7---7---7---7~~~~~~-7---7~~~~~~-7---7---7---|
G#-5~~~~~~-5---5~~~~~~-5---5---5---7~~~~~~-7---7~~~~~~-7---7---7---|
C#---------------------------------7~~~~~~-7---7~~~~~~-7---7---7---|

Guitar 3
D#-----------------------------------------------------------------|
A#-------------15~~~~~-16~~~~~-15--------------15~~~~~-16~~~~~-15--|
F#-17~~~~~~~~~-----------------------------------------------------|
C#---------------------------------17~~~~~~~~~---------------------|
G#-----------------------------------------------------------------|
C#-----------------------------------------------------------------|


Guitar 1
D#------------------------------------------------------------------|
A#------------------------------------------------------------------|
F#------------------------------------------------------------------|
C#-8~~~~~~-8---8~~~~~~-8---8---8---8---8----------------------------|
G#-8~~~~~~-8---8~~~~~~-8---8---8---8---8---------------7---7h8p7----|
C#-8~~~~~~-8---8~~~~~~-8---8---8---8---8---7---7---7-------------10-|

Guitar 2
D#-----------------------------------------------------------------|
A#-----------------------------------------------------------------|
F#-----------------------------------------------------------------|
C#-8~~~~~~-8---8~~~~~~-8---8---8---8---8---------------5---5h7p5---|
G#-8~~~~~~-8---8~~~~~~-8---8---8---8---8---3---3---3-------------7-|
C#-8~~~~~~-8---8~~~~~~-8---8---8---8---8---------------------------|

Guitar 3
D#-----------------------------------------------------------------|
A#-------------15~~~~~-16~~~~~-15~~~~~---------15~~~~~-16~~~~~-15--|
F#-15~~~~~~~~~-------------------------15~~~~~---------------------|
C#-----------------------------------------------------------------|
G#-----------------------------------------------------------------|
C#-----------------------------------------------------------------|


Guitar 1 & 2
D#-----------------------------------------------------------------|
A#-----------------------------------------------------------------|
F#-7~~~~~~-7---7~~~~~~-7---7---7-----------------------------------|
C#-7~~~~~~-7---7~~~~~~-7---7---7---7~~~~~~-7---7~~~~~~-7---7---7---|
G#-5~~~~~~-5---5~~~~~~-5---5---5---7~~~~~~-7---7~~~~~~-7---7---7---|
C#---------------------------------7~~~~~~-7---7~~~~~~-7---7---7---|

Guitar 3
D#-----------------------------------------------------------------|
A#-------------15~~~~~-16~~~~~-15--------------15~~~~~-16~~~~~-15--|
F#-17~~~~~~~~~-----------------------------------------------------|
C#---------------------------------17~~~~~~~~~---------------------|
G#-----------------------------------------------------------------|
C#-----------------------------------------------------------------|


Guitar 1
D#-----------------------------------------------------------------|
A#-----------------------------------------------------------------|
F#-----------------------------------------------------------------|
C#-8~~~~~~-8---8~~~~~~-8---8---8---8---3---5---3---0---5---3---0---|
G#-8~~~~~~-8---8~~~~~~-8---8---8---8---3---5---3---0---5---3---0---|
C#-8~~~~~~-8---8~~~~~~-8---8---8---8---3---5---3---0---5---3---0---|

Guitar 2
D#-----------------------------------------------------------------|
A#-----------------------------------------------------------------|
F#-----------------------------------------------------------------|
C#-8~~~~~~-8---8~~~~~~-8---8---8---8---3---5---3---0---5---x---x---|
G#-8~~~~~~-8---8~~~~~~-8---8---8---8---3---5---3---0---5---x---x---|
C#-8~~~~~~-8---8~~~~~~-8---8---8---8---3---5---3---0---5---x---x---|

Guitar 3
D#-----------------------------------------------------------------|
A#-------------15~~~~~-16~~~~~-15~~~~~---------15~~~~~-16~~~~~-15--|
F#-15~~~~~~~~~-------------------------15~~~~~---------------------|
C#-----------------------------------------------------------------|
G#-----------------------------------------------------------------|
C#-----------------------------------------------------------------|


Guitar 1 & 2
D#-----------------------------------------------------------------|
A#-----------------------------------------------------------------|
F#-7~~~~~~-7---7~~~~~~-7---7---7-----------------------------------|
C#-7~~~~~~-7---7~~~~~~-7---7---7---7~~~~~~-7---7~~~~~~-7---7---7---|
G#-5~~~~~~-5---5~~~~~~-5---5---5---7~~~~~~-7---7~~~~~~-7---7---7---|
C#---------------------------------7~~~~~~-7---7~~~~~~-7---7---7---|

Guitar 3
D#-----------------------------------------------------------------|
A#-------------15~~~~~-16~~~~~-15--------------15~~~~~-16~~~~~-15--|
F#-17~~~~~~~~~-----------------------------------------------------|
C#---------------------------------17~~~~~~~~~---------------------|
G#-----------------------------------------------------------------|
C#-----------------------------------------------------------------|


Guitar 1
D#------------------------------------------------------------------|
A#------------------------------------------------------------------|
F#------------------------------------------------------------------|
C#-8~~~~~~-8---8~~~~~~-8---8---8---8---8----------------------------|
G#-8~~~~~~-8---8~~~~~~-8---8---8---8---8---------------7---7h8p7----|
C#-8~~~~~~-8---8~~~~~~-8---8---8---8---8---7---7---7-------------10-|

Guitar 2
D#-----------------------------------------------------------------|
A#-----------------------------------------------------------------|
F#-----------------------------------------------------------------|
C#-8~~~~~~-8---8~~~~~~-8---8---8---8---8---------------5---5h7p5---|
G#-8~~~~~~-8---8~~~~~~-8---8---8---8---8---3---3---3-------------7-|
C#-8~~~~~~-8---8~~~~~~-8---8---8---8---8---------------------------|

Guitar 3
D#-----------------------------------------------------------------|
A#-------------15~~~~~-16~~~~~-15~~~~~---------15~~~~~-16~~~~~-15--|
F#-15~~~~~~~~~-------------------------15~~~~~---------------------|
C#-----------------------------------------------------------------|
G#-----------------------------------------------------------------|
C#-----------------------------------------------------------------|


Guitar 1
D#-----------------------------------------------------------------|
A#-----------------------------------------------------------------|
F#-----------------------------------------------------------------|
C#-5~~~~~~-5---5---5---5---5---5---5---5---5---5---5---5---5---5---|
G#-5~~~~~~-5---5---5---5---5---5---5---5---5---5---5---5---5---5---|
C#-5~~~~~~-5---5---5---5---5---5---5---5---5---5---5---5---5---5---|

Guitar 2
D#-----------------------------------------------------------------|
A#-----------------------------------------------------------------|
F#-7~~~~~~-7---7---7---7---7---7---7---7---7---7---7---7---7---7---|
C#-----------------------------------------------------------------|
G#-----------------------------------------------------------------|
C#-----------------------------------------------------------------|

Guitar 3
D#-----------------------------------------------------------------|
A#-------------15~~~~~-16~~~~~-----------------15~~~~~-16~~~~~-15--|
F#-17~~~~~~~~~-----------------17--17~~~~~~~~~---------------------|
C#-----------------------------------------------------------------|
G#-----------------------------------------------------------------|
C#-----------------------------------------------------------------|


Guitar 1
D#-----------------------------------------------------------------|
A#-----------------------------------------------------------------|
F#-----------------------------------------------------------------|
C#-7~~~~~~-7---7---7---7---7---7---7---7---7---7---7---7---7---7---|
G#-7~~~~~~-7---7---7---7---7---7---7---7---7---7---7---7---7---7---|
C#-7~~~~~~-7---7---7---7---7---7---7---7---7---7---7---7---7---7---|

Guitar 2 (Gradually bend and return)
D#-----------------------------------------------------------------|
A#-----------------------------------------------------------------|
F#-9~~~~~~-9---9---9---9---9---9b--9b--9b--9b--9b--9b--9b--9r--9r--|
C#-----------------------------------------------------------------|
G#-----------------------------------------------------------------|
C#-----------------------------------------------------------------|

Guitar 3
D#-----------------------------------------------------------------|
A#-------------15~~~~~-16~~~~~-15~~~~~---------15~~~~~-16~~~~~-15--|
F#-----------------------------------------------------------------|
C#-17~~~~~~~~~-------------------------17~~~~~---------------------|
G#-----------------------------------------------------------------|
C#-----------------------------------------------------------------|


Breakdown 1============================================


Guitar 1
D#-----------------------------------------------------|
A#-----------------------------------------------------|
F#-----------------------------------------------------|
C#-----------------------------------------------------|
G#-5h6p5-3-------------------5h6p5-3-------------------|
C#-----------5---5h6p5-3p0-------------5---5h6p5-3p0---|

Guitar 2
D#-----------------------------------------------------|
A#-----------------------------------------------------|
F#-----------------------------------------------------|
C#-0-------------------------0-------------------------|
G#-0-------------------------0-------------------------|
C#-0-------------------------0-------------------------|

Guitar 3
D#-----------------------------------------------------|
A#-----------------------------------------------------|
F#-7-------------------------7-------------------------|
C#-7-------------------------7-------------------------|
G#-5-------------------------5-------------------------|
C#-----------------------------------------------------|


Guitar 1
D#-----------------------------------------------------|
A#-----------------------------------------------------|
F#-----------------------------------------------------|
C#---------------------------0~~~~~~~~~~~~~~~~~~~~-7\~-|
G#-5h6p5-3-------------------0~~~~~~~~~~~~~~~~~~~~-7\~-|
C#-----------5---5h6p5-3p0---0~~~~~~~~~~~~~~~~~~~~-7\~-|

Guitar 2
D#-----------------------------------------------------|
A#-----------------------------------------------------|
F#-----------------------------------------------------|
C#-0-------------------------0~~~~~~~~~~~~~~~~~~~~-7\~-|
G#-0-------------------------0~~~~~~~~~~~~~~~~~~~~-7\~-|
C#-0-------------------------0~~~~~~~~~~~~~~~~~~~~-7\~-|

Guitar 3
D#-----------------------------------------------------|
A#-----------------------------------------------------|
F#-7-------------------------7~~~~~~~~~~~~~~~~~~~~-----|
C#-7-------------------------7~~~~~~~~~~~~~~~~~~~~-7\~-|
G#-5-------------------------5~~~~~~~~~~~~~~~~~~~~-7\~-|
C#-------------------------------------------------7\~-|


Breakdown 2========================================================


Guitar 1 & 2
D#-----------------------------------------------------------------|
A#-----------------------------------------------------------------|
F#-----------------------------------------------------------------|
C#-5---5---3---5-------3-------------------------------------------|
G#-5---5---3---5-------3-------5---5h6p5-3-------------------------|
C#-5---5---3---5-------3---------------------5---5h6p5-3p0~~~~~~~~-|


Guitar 1 & 2
D#-----------------------------------------------------------------|
A#-----------------------------------------------------------------|
F#-----------------------------------------------------------------|
C#-5---5---3---5-------3-------------------------------------------|
G#-5---5---3---5-------3-------5---5h6p5-3-------3-----------------|
C#-5---5---3---5-------3---------------------5-------3---3~~~~~~~~-|


Guitar 1 & 2
D#-----------------------------------------------------------------|
A#-----------------------------------------------------------------|
F#-----------------------------------------------------------------|
C#-5---5---3---5-------3-------------------------------------------|
G#-5---5---3---5-------3-------5---5h6p5-3-------------------------|
C#-5---5---3---5-------3---------------------5---5h6p5-3p0~~~~~~~~-|


Guitar 1 & 2
D#-----------------------------------------------------------------|
A#-----------------------------------------------------------------|
F#-----------------------------------------------------------------|
C#-5---5---3---5-------3-------------------------------------------|
G#-5---5---3---5-------3-------------------------------------------|
C#-5---5---3---5-------3-------0---2---3---5---3---2---5~~~~~~~~~~-|


Guitar 1 & 2
D#-----------------------------------------------------------------|
A#-----------------------------------------------------------------|
F#-----------------------------------------------------------------|
C#-5---5---3---5-------3-------------------------------------------|
G#-5---5---3---5-------3-------5---5h6p5-3-------------------------|
C#-5---5---3---5-------3---------------------5---5h6p5-3p0~~~~~~~~-|

Guitar 3
D#-----------------------------------------------------------------|
A#-----------------------------15--15h16p15-13---------------------|
F#-12--12--10--12------10-----------------------12--12h13p12-10~~~-|
C#-----------------------------------------------------------------|
G#-----------------------------------------------------------------|
C#-----------------------------------------------------------------|


Guitar 1 & 2
D#-----------------------------------------------------------------|
A#-----------------------------------------------------------------|
F#-----------------------------------------------------------------|
C#-5---5---3---5-------3-------------------------------------------|
G#-5---5---3---5-------3-------5---5h6p5-3-------3-----------------|
C#-5---5---3---5-------3---------------------5-------3---3~~~~~~~~-|

Guitar 3
D#-----------------------------------------------------------------|
A#-----------------------------15--15h16p15-13---------------------|
F#-12--12--10--12------10-----------------------10--12--9---9~~~~~-|
C#-----------------------------------------------------------------|
G#-----------------------------------------------------------------|
C#-----------------------------------------------------------------|


Guitar 1 & 2
D#-----------------------------------------------------------------|
A#-----------------------------------------------------------------|
F#-----------------------------------------------------------------|
C#-5---5---3---5-------3-------------------------------------------|
G#-5---5---3---5-------3-------5---5h6p5-3-------------------------|
C#-5---5---3---5-------3---------------------5---5h6p5-3p0~~~~~~~~-|

Guitar 3
D#-----------------------------------------------------------------|
A#-----------------------------15--15h16p15-13---------------------|
F#-12--12--10--12------10-----------------------12--12h13p12-10~~~-|
C#-----------------------------------------------------------------|
G#-----------------------------------------------------------------|
C#-----------------------------------------------------------------|


Guitar 1 & 2
D#-----------------------------------------------------------------|
A#-----------------------------------------------------------------|
F#-----------------------------------------------------------------|
C#-5---5---3---5-------3-------------------------------------------|
G#-5---5---3---5-------3-------------------------------------------|
C#-5---5---3---5-------3-------0---2---3---5---3---2---5~~~~~~~~~~-|

Guitar 3
D#-----------------------------------------------------------------|
A#-----------------------------------------------------15~~~~~~~~~-|
F#-12--12--10--12------10----------9---10--12--10--9---------------|
C#-----------------------------12----------------------------------|
G#-----------------------------------------------------------------|
C#-----------------------------------------------------------------|


Guitar Solo========================================================


Guitar 1 & 2
D#-----------------------------------------------------------------|
A#-----------------------------------------------------------------|
F#-----------------------------------------------------------------|
C#-0---0---0---0---0---0---0---0---7---7---7---7---7---7---7---7---|
G#-0---0---0---0---0---0---0---0---7---7---7---7---7---7---7---7---|
C#-0---0---0---0---0---0---0---0---7---7---7---7---7---7---7---7---|

Guitar 3
D#-----------------------------------------------------------------|
A#-----------------15~~b~~~~~r---------------------15~~b~~~~~r-----|
F#-10--10--10--10--10--10--10--10--10--10--10--10--10--10--10--10--|
C#-14--14--14--14--14--14--14--14--14--14--14--14--14--14--14--14--|
G#-----------------------------------------------------------------|
C#-----------------------------------------------------------------|


Guitar 1 & 2
D#-----------------------------------------------------------------|
A#-----------------------------------------------------------------|
F#-----------------------------------------------------------------|
C#-8---8---8---8---8---8---8---8---8---8---8---8---8---8---8---8---|
G#-8---8---8---8---8---8---8---8---8---8---8---8---8---8---8---8---|
C#-8---8---8---8---8---8---8---8---8---8---8---8---8---8---8---8---|

Guitar 3
D#-----------------------------------------------------------------|
A#-17b~~~~~~~~-17h18p17p15-13--15--13------------------------------|
F#-------------------------------------12--14----------------------|
C#---------------------------------------------15--14--15-/12~~~~~-|
G#-----------------------------------------------------------------|
C#-----------------------------------------------------------------|


Guitar 1 & 2
D#-----------------------------------------------------------------|
A#-----------------------------------------------------------------|
F#-----------------------------------------------------------------|
C#-0---0---0---0---0---0---0---0---7---7---7---7---7---7---7---7---|
G#-0---0---0---0---0---0---0---0---7---7---7---7---7---7---7---7---|
C#-0---0---0---0---0---0---0---0---7---7---7---7---7---7---7---7---|

Guitar 3
D#-------------------------------------------------------------15--|
A#-13--13--12--15~~~~~-13--13--15--15--15--15--15~~~~~-15--15--13--|
F#-12--12--12--12~~~~~-12--12--14--14--14--14--14~~~~~-14--14------|
C#-----------------------------------------------------------------|
G#-----------------------------------------------------------------|
C#-----------------------------------------------------------------|


Guitar 1 & 2
D#-----------------------------------------------------------------|
A#-----------------------------------------------------------------|
F#-----------------------------------------------------------------|
C#-3---3---3---3---3---3---3---3---3---3---3---3---3---3---3---3---|
G#-3---3---3---3---3---3---3---3---3---3---3---3---3---3---3---3---|
C#-3---3---3---3---3---3---3---3---3---3---3---3---3---3---3---3---|

Guitar 3
D#-15--15--15------15------15------15--15--15------15--15--15------|
A#-13--13--13------13------13------13--13--13------13--13--13------|
F#-----------------------------------------------------------------|
C#-----------------------------------------------------------------|
G#-----------------------------------------------------------------|
C#-----------------------------------------------------------------|


Guitar 1 & 2
D#-----------------------------------------------------------------|
A#-----------------------------------------------------------------|
F#-----------------------------------------------------------------|
C#-0---0---0---0---0---0---0---0---7---7---7---7---7---7---7---7---|
G#-0---0---0---0---0---0---0---0---7---7---7---7---7---7---7---7---|
C#-0---0---0---0---0---0---0---0---7---7---7---7---7---7---7---7---|

Guitar 3                           |Don't know what effect this is |
D#-17~~~~~~~~~~~~~-20~~~~~~~~~~~~~-~-~-~-~-~-~-~-~-~-~-~-~-~-~-\~~-|
A#-----------------------------------------------------------------|
F#-----------------------------------------------------------------|
C#-----------------------------------------------------------------|
G#-----------------------------------------------------------------|
C#-----------------------------------------------------------------|


Guitar 1 & 2
D#-----------------------------------------------------------------|
A#-----------------------------------------------------------------|
F#-----------------------------------------------------------------|
C#-8---8---8---8---8---8---8---8---8---8---8---8---8---8---8---8---|
G#-8---8---8---8---8---8---8---8---8---8---8---8---8---8---8---8---|
C#-8---8---8---8---8---8---8---8---8---8---8---8---8---8---8---8---|

Guitar 3
D#/22~~~~~~~~~~~~~~~~~~~~~~~-22----20----20----18----18----15--16--|
A#-----------------------------------------------------------------|
F#-----------------------------------------------------------------|
C#-----------------------------------------------------------------|
G#-----------------------------------------------------------------|
C#-----------------------------------------------------------------|


Guitar 1
D#-----------------------------------------------------------------|
A#-----------------------------------------------------------------|
F#-----------------------------------------------------------------|
C#-5~~~~~~-5---5---5---5---5---5---5---5---5---5---5---5---5---5---|
G#-5~~~~~~-5---5---5---5---5---5---5---5---5---5---5---5---5---5---|
C#-5~~~~~~-5---5---5---5---5---5---5---5---5---5---5---5---5---5---|

Guitar 2
D#-----------------------------------------------------------------|
A#-----------------------------------------------------------------|
F#-7~~~~~~-7---7---7---7---7---7---7---7---7---7---7---7---7---7---|
C#-----------------------------------------------------------------|
G#-----------------------------------------------------------------|
C#-----------------------------------------------------------------|

Guitar 3
D#-14b~~~~~~~~~~~~~~~~~~~~~~~~-------------------------------------|
A#-----------------------------18p-15--20~~~~~~~~~-18p-15~~~~~~~~~-|
F#-----------------------------------------------------------------|
C#-----------------------------------------------------------------|
G#-----------------------------------------------------------------|
C#-----------------------------------------------------------------|


Guitar 1
D#-----------------------------------------------------------------|
A#-----------------------------------------------------------------|
F#-----------------------------------------------------------------|
C#-7~~~~~~-7---7---7---7---7---7---7---7---7---7---7---7---7---7---|
G#-7~~~~~~-7---7---7---7---7---7---7---7---7---7---7---7---7---7---|
C#-7~~~~~~-7---7---7---7---7---7---7---7---7---7---7---7---7---7---|

Guitar 2 (Gradually bend and return)
D#-----------------------------------------------------------------|
A#-----------------------------------------------------------------|
F#-9~~~~~~-9---9---9---9---9---9b--9b--9b--9b--9b--9b--9b--9r--9r--|
C#-----------------------------------------------------------------|
G#-----------------------------------------------------------------|
C#-----------------------------------------------------------------|

Guitar 3
D#---------------------------------------------13-15-13----15-13-16-15-13-|
A#/18~~~~~-17h18p17p15-13-15-17p15-17p15-13-15----------15----------------|
F#------------------------------------------------------------------------|
C#------------------------------------------------------------------------|
G#------------------------------------------------------------------------|
C#------------------------------------------------------------------------|

Guitar 3 continued
D#---------------------------------|
A#-15p13-18p15p13------------------|
F#----------------14-17-14---------|
C#-------------------------17\~~~~-|
G#---------------------------------|
C#---------------------------------|


Break Off 2==================


Guitar 1
D#---------------------------|
A#---------------------------|
F#---------------------------|
C#---------------------------|
G#-5h6p5-3-------------------|
C#-----------5---5h6p5-3p0---|

Guitar 2
D#---------------------------|
A#---------------------------|
F#---------------------------|
C#-0-------------------------|
G#-0-------------------------|
C#-0-------------------------|

Guitar 3
D#----------------------------|
A#-12/~-~13\~-~-~-~-~-~-~-~-~-|
F#----------------------------|
C#----------------------------|
G#----------------------------|
C#----------------------------|


Pre Chorus 1===================================================


Guitar 1
D#-------------------------------------------------------------|
A#-------------------------------------------------------------|
F#-------------------------------------------------------------|
C#-------------------------------------------------------------|
G#---------------------------------------------8---5~~~~~~-----|
C#-5~~~~~~~~~~~~~~~~~~~~~~~~~~~~~~~~~~-5---7---------------7---|

Guitar 2
D#-------------------------------------------------------------|
A#-------------------------------------------------------------|
F#-------------------------------------------------------------|
C#---------------------------------------------2---3~~~~~~-----|
G#-1~~~~~~~~~~~~~~~~~~~~~~~~~~~~~~~~~~-1---3---------------3---|
C#-------------------------------------------------------------|


Guitar 1
D#--------------------------------------------------------------|
A#--------------------------------------------------------------|
F#--------------------------------------------------------------|
C#--------------------------------------------------------------|
G#-------------------------------------------------7---7h8p7----|
C#-8~~~~~~~~~~~~~~~~~~~~~~~~~~~~~~~~~~-7---7---7-------------10-|

Guitar 2
D#-------------------------------------------------------------|
A#-------------------------------------------------------------|
F#-------------------------------------------------------------|
C#-------------------------------------------------5---5h7p5---|
G#-5~~~~~~~~~~~~~~~~~~~~~~~~~~~~~~~~~~-3---3---3-------------7-|
C#-------------------------------------------------------------|


Chorus 2 (Chorus 1 x2)=============================================


Guitar 1 & 2
D#-----------------------------------------------------------------|
A#-----------------------------------------------------------------|
F#-7~~~~~~-7---7~~~~~~-7---7---7-----------------------------------|
C#-7~~~~~~-7---7~~~~~~-7---7---7---7~~~~~~-7---7~~~~~~-7---7---7---|
G#-5~~~~~~-5---5~~~~~~-5---5---5---7~~~~~~-7---7~~~~~~-7---7---7---|
C#---------------------------------7~~~~~~-7---7~~~~~~-7---7---7---|

Guitar 3
D
Добавлено: 27.05.2012
Вам также может быть интересно:
Другие материалы по этой песне:
  • Аккорды и текст

Страница создана 27.05.2012
http://primanota.ru/the-damned-things/friday-night-going-down-in-flames-chords.htm
Привет, Гость.
Предлагаем пройти революционный курс по гитаре.
Подарок от PrimaNota.Ru, забирай!