PrimaNota.ru - самый крупный в мире бесплатный архив песенных текстов, аккордов, табулатур и нот


The Damned Things - Black Heart - таба, видео

Регистрация Запомнить меня
Войти через:  Facebook Google Twitter Vk Yandex Mail.ru

The Damned Things - Black Heart - таба, видео

Печатать
Просмотров: 60
Intro:
e|--------------------------------------------------------------------------------------------------|
B|--------------------------------------------------------------------------------------------------|
G|---------------------------------------------------------------------------2h4-------2---4-2-4-4--|
D|--2h4-2h4-2---2h4-x-4-4---4-6h7-4---4-6464-2-4-4-4-6h7-4---4-6-6-4-2-4-4-4-----4-2-4---4---2-4-4--|
A|------------4-----x-4-4-----------7--------2-4-4---------7---------2-4-4-------------------0-2-2--|
E|------------------x-2-2--------------------0-2-2-------------------0-2-2--------------------------|

*these are half note triplets  intro ends, begin verse
e|----------------------------|---------------------------------------------------------------------------|
B|----7-5---------------------|---------------------------------------------------------------------------|
G|--6-----6-5-4---------------|---------------------------------------------------------------------------|
D|--------------7-------------|------2-4-4---------------------2h4---------2-4-4---------------------2h4--|
A|----------------------------|------2-4-4---------------------2h4---------2-4-4---------------------2h4--|
E|----------------------------|--5-4-0-2-2---------------5--4--0h2-----5-4-0-2-2---------------5--4--0h2--|
                                 * * *                                 * * *
e|--------------------------------------------------------------------------------------------|
B|----------7--7-7-7-7-9-7---7--7-7-7-7-9-7---------------------------------------------------|
G|--------4-7--7-7-7-7-9-7-4-7--7-7-7-7-9-7---------------------------------------------------|
D|--------4-9--9-9-9-9-9-9-4-9--9-9-9-9-9-9--4-4---------------------2h4----------------------|
A|--------2----------------2-----------------4-4---------------------2h4----------------------|
E|--5-4-0------------------------------------2-2---------------5--4--0h2---------------5-4-0--|
    * * *
Prechorus (Suddenly not swing 8ths)         Chorus
e|---------------------------------------| |-------------------------------------|
B|---------------------------------------| |-------------------------------------|
G|---------------------------------------| |-------4x4--4-4----------------------|
D|--6664/6664/66666664/6664/6664/6666666-| |--7--7-4x4--4-4-2h4442h4442h4442h444-|  X3
A|--6664/6664/66666664/6664/6664/6666666-| |--7--7-2x2--2-2-2h4442h4442h4442h444-|
E|--4442/4442/44444442/4442/4442/4444444-| |--5--5----------0h2220h2220h2220h222-|
 
after 3rd time, do:
e|-------------------------|
B|-------------------------|
G|--4-4--------------------|   <-- After this part, repeat intro exactly
D|--4-4---------------2-2--|
A|--2-2-4h5-5-5-----5-2-2--|
E|--------------2-5---0-0--|

then repeat verse in full 
*except, when playing the Bm-Emaj 2nd inversion-root part, after the first 5 of the 2nd run, play:
e|-7-5---5h7--|   then continue
B|-----7------|

then prechorus-chorus again but chorus ends differently- lead-in to solo
e|--------------------------------|
B|--------------------------------|
G|--4-4---------------------------|
D|--4-4---------------2-2---------|
A|--2-2-4h5-5-5-----5-2-2-2-2-2h4-|
E|--------------2-5---0-0---------|

Solo:
gtr 2 plays this during 1st part
e|----------------------| |--------------------------|    |-------------------------------------|
B|----------------------| |--------------------------|    |-------------------------------------|
G|----------------------| |---4~-------------------4-| X2 |--6--6-6--6-6------6--6-6--6-6-x2-x4-| X2
D|--4------2-4------2---| |---4~--4---2-4-4--2---2-4-|    |--6--6-6--6-6-4-2--6--6-6--6-6-x2-x4-|
A|--4------2-4------2---| |---2~--4---2-4-4--2---2-2-|    |--4--4-4--4-4-4-2--4--4-4--4-4-x0-x2-|
E|--2------0-2------0---| |-------2---0-2-2--0---0---|    |--------------2-0--------------------|


Gtr 1(in between hits on the first part):
e|------------------------------------------| |------------------------------------|
B|----------------2--------5-------2--------| |--5-4-----5-5-4----5-4------5-4-----|
G|----------------2------/4-4-2------2h4-2--| |--6-4-6-4-6-6-4-6--6-4-6-4--6-4-6-4-|   
D|-----2------2h4---4------------4----------| |------7-4-------7------7-4------7-4-|
A|--2h4----2h4------------------------------| |------------------------------------|
E|------------------------------------------| |------------------------------------|

e|------------------------------------|------------------------------------------------|
B|--5-4-----5-5-4----5-4-----5/7------|------------------------------------8b10-7b9----|
G|--6-4-6-4-6-6-4-6--6-4-6-4-6/8------|--6-6-6-4-6--6-6-6-4-6--4---6p4-----------------|
D|------7-4-------7------7-4----------|--------------------------7----h7p4-------------|
A|------------------------------------|------------------------------------------------|
E|------------------------------------|------------------------------------------------|
                   
                               (quick 8th triplets)
e|--7h9--9-7h9--9-7h9-7h9-9-7----5h7p5p4h5p4--4------x5--7---|
B|----------------------------7-------------7--7p5---------5-|
G|------------------------------------------------6----------|
D|-----------------------------------------------------------|
A|-----------------------------------------------------------|
E|-----------------------------------------------------------|

Bridge: ("everybody's got their own thing...")
e|--------------------------------------------------------------|
B|--------------------------------------------------------------|
G|------------------------4-4h6-4-------------------------------|
D|--4----x2--4----2----x2-4-------7-4---4----x2--4----2----x2/9-|
A|--4----x2--4----2----x2-2-------------4----x2--4----2----x2/9-|
E|--2----x0--2----0----x0---------------2----x0--2----0----x0/7-|

Chorus X2 (same chords, but only the guitar plays on the first part)
Добавлено: 21.06.2016
Другие материалы по этой песне:
  • Аккорды и текст

Страница создана 21.06.2016
http://primanota.ru/the-damned-things/black-heart-chords.htm
Привет, Гость.
Предлагаем пройти революционный курс по гитаре.
Подарок от PrimaNota.Ru, забирай!