PrimaNota.ru - самый крупный в мире бесплатный архив песенных текстов, аккордов, табулатур и нот


The Dakotas - The Cruel Sea - таба, бас-таба, видео

Регистрация Запомнить меня
Войти через:  Facebook Google Twitter Vk Yandex Mail.ru

The Dakotas - The Cruel Sea - таба, бас-таба, видео

Печатать
Просмотров: 139
-------------------------------------------------------------------------------
                             THE CRUEL SEA - The Dakotas
-------------------------------------------------------------------------------

The Dakotas' webpage: http://www.thedakotas.co.uk/

Tabbed by: DPL
Email: nizibian@gmail.com

Tuning: Standard (EADGBe)

Intro

e|---------------------------------------------------------------------------|
B|---------------------------------------------------------------------------|
G|---------------------------------------------------------------------------|
D|-7-8-9-10-11-10-9-8-7-8-9-10-11-10-9-8-------------------------------------|
A|---------------------------------------------------------------------------|
E|-5-6-7-8--9--8--7-6-5-6-7-8--9--8--7-6-------------------------------------|

Verse

e|-5-5-535------5-5-535-----5-5-578-5-5-578-7-7-78-13-12-12-12-1212----------|
B|---------5-5----------5-5--------------------------------------------------|
G|---------------------------------------------------------------------------| 
D|---------------------------------------------------------------------------|
A|---------------------------------------------------------------------------|
E|---------------------------------------------------------------------------|


Fill on second verse

e|----5875------5875---------------------------------------------------------|
B|---x----875--x----85-------------------------------------------------------|
G|--x---------x--------------------------------------------------------------|
D|---------------------------------------------------------------------------|
A|---------------------------------------------------------------------------|
E|---------------------------------------------------------------------------|

Chorus

e|-----------------5-----5---------------------------------------------------|
B|-8-888-888-888-88-85-58-8-5-555-555-555-5565---565-------------------------|
G|--------------------5-----------------------5-5----------------------------| 
D|---------------------------------------------7-----------------------------|
A|---------------------------------------------------------------------------|
E|---------------------------------------------------------------------------|

End of chorus

e|---------------------------------------------------------------------------|
B|-3-333-5-3---3-333-5-3---1-111-3-1---1-111-3-1------0----------------------|
G|----------4-4---------4-4---------2-2---------2-2---1----------------------|
D|-----------5-----------5-----------3-----------3----2----------------------|
A|----------------------------------------------------2----------------------|
E|--------------------------------------------------0-0----------------------|

Ending

e|----------------------------------------------------------5-5-3-----5------|
B|----------------------------------------------------------------5-3-5------|
G|--------------------------------------------------------------------6------|
D|-7-8-9-10-11-10-9-8-7-8-9-10-11-10-9-8-7-8-9-10-11-10-9-8-----------7------|
A|--------------------------------------------------------------------7------|
E|-5-6-7-8--9--8--7-6-5-6-7-8--9--8--7-6-5-6-7-8--9--8--7-6-----------5------|


Song order:

Intro
Verse x2
Chorus x2
End of chorus
Verse (with Fill)
Chorus x2
End of chorus
Verse
Ending


************************************

| /   slide up
| \   slide down
| h   hammer-on
| p   pull-off
| ~   vibrato
| +   harmonic
| x   Mute note
| b   Bend
| pb  Pre-bend
| br  Bend release
| pbr Pre-bend release
| brb Bend release bend

************************************
Добавлено: 23.07.2012
Другие материалы по этой песне:

Страница создана 23.07.2012
http://primanota.ru/the-dakotas/the-cruel-sea-chords.htm
Привет, Гость.
Предлагаем пройти революционный курс по гитаре.
Подарок от PrimaNota.Ru, забирай!