PrimaNota.ru - самый крупный в мире бесплатный архив песенных текстов, аккордов, табулатур и нот


The Czars - Paint The Moon - текст песни, таба, видео

Регистрация Запомнить меня
Войти через:  Facebook Google Twitter Vk Yandex Mail.ru

The Czars - Paint The Moon - текст песни, таба, видео

Печатать
Просмотров: 171
-------------------------------------------------------------------------------
                             PAINT THE MOON - The Czars
-------------------------------------------------------------------------------
Tabbed by: Slinden
E-mail: thewhyer (at) gmail.com

Tuning:Standard

I've decided to tune this beautiful song, since I can't find it anywhere on the 
internet.  This is
the album version, though the live acoustic (on Youtube) is also amazing.
*Note* I changed the last part of the intro and the last part of the solo because I 
believe the lead
is originally in drop D tuning.  I tabbed it in standard so it's just a taaad different. Still
sounds good, though.  Enjoy!

[Intro]
   C        G         Dm       F
e|----------------------------------------|
B|----------------------------------------|
G|----------------------------------------|
D|-------0-2--------0---------------------|
A|--3--3-----2--2-3---0--0-2-3-5--3p2-3---|
E|----------------------------------------|
   C        G         Dm  F
e|----------------------------------------|
B|----------------------------------------|
G|----------------------------------------|
D|-------0-2--------0---------------------|
A|--3--3-----2--2-3-----------------------|
E|--------------------5---3-1-0h1/3/5-----|

[Verse]
C
I had a dream last night
  G
A nightmare to be exact
   Dm
We couldn't take the heat
        F
And the sweat dripped from our backs
C                    G
I didn't go I waited for the Midnight sun
  Dm
I didn't want to leave you
         F
'Cause I don't have anyone

[Chorus]
                C
Don't paint the sun anymore
          G             Dm
Paint the moon, and the stars
             F
In an autumn sky
         C
Paint me cool blue waters, with
          G                Dm
Shades of gray, just don't let me
                  F
Live my life this way
    C
Without you

[Solo]
         C         G            Dm             F          C
e|--------------------------------------------------------------|
B|-------8-10-8--8-8\6-6-6\5--3-----3p1-1--3-1-1----------------|
G|---/9-------------------------2h5-------------------5---------|
D|------------------------------------------------5/7---7-5-----|
A|--------------------------------------------------------------|
E|--------------------------------------------------------------|
   C             G          Dm         F         Am
e|--------------------------------------------------------------|
B|--------------------------------------------------------------|
G|--------------------------------------------------------------|
D|--5/7-5-/2-5-2-0----------------------------------------------|
A|--------------------------------------------------------------|
E|------------------/5-3-0--3-1-1--1-3-3-5-7-8-7-5--------------|

[Bridge]
Am                F
Let it go, let it go
                          C
Let it fall down from the sky
                       G
And leave this world behind

[Verse]
I saw you suffering, so I knelt
Down by your side, I saw that you
Were fading, that you were leaving
Your own mind
I gave you water just to soothe your
Failing heart and take away the fear
Of what we both know we will find

[Chorus]
Don't paint the sun anymore
Paint the moon, and the stars
In an autumn sky
Paint me cool blue waters, with
Shades of gray, just don't let me
Live my life this way
Without you
Добавлено: 06.09.2013
Другие материалы по этой песне:
  • Аккорды и текст

Страница создана 29.05.2012
http://primanota.ru/the-czars/paint-the-moon-chords.htm
Привет, Гость.
Предлагаем пройти революционный курс по гитаре.
Подарок от PrimaNota.Ru, забирай!