PrimaNota.ru - самый крупный в мире бесплатный архив песенных текстов, аккордов, табулатур и нот


The Crowns - Let It Go - таба, бас-таба, видео

Регистрация Запомнить меня
Войти через:  Facebook Google Twitter Vk Yandex Mail.ru

The Crowns - Let It Go - таба, бас-таба, видео

Печатать
Просмотров: 139
Song:  Let It Go
Artist:  The Crowns

Tabbed by: The Knox
Email: dzafuto@gmail.com

Tuning: EADGBe

Intro/Verse 0:01

e|-----11-11------------------------------|
B|-----------11-11----44-------44---------|
G|-----------------------44---------------|
D|--66-------------44-------66------------|
A|----------------------------------------| x12
E|----------------------------------------|

After 8 times of the Intro Guitar, Guitar 2 plays along with this:

0:26
e|---------12-12--11-11--------12-12--11-11--9-9--11-11-----|
B|--12-12---------------12-12-------------------------------|
G|----------------------------------------------------------|
D|----------------------------------------------------------|
A|----------------------------------------------------------| x4
E|----------------------------------------------------------|

Chorus 0:39
e|-------------------------------------------------------------|
B|-------------------------------------------------------------|
G|-------------------------------------------------------------|
D|-------------------------------------------------------------|
A|-66666666-99999999-1010101010101010--14-14-14-14-13-13-13-13-| x4
E|-44444444-77777777-9-9-9-9-9-9-9-9---12-12-12-12-11-11-11-11-|

After Chorus, Guitar 2 plays this:  
e|----------------------------------------|
B|----------------------------------------|
G|----------------------------------------|
D|----------------------------------------|
A|-6~-------------------------------------|
E|-4~-------------------------------------|

while Guitar 1 plays the Verse:

Verse 1:05
e|-----11-11------------------------------|
B|-----------11-11----44-------44---------|
G|-----------------------44---------------|
D|--66-------------44-------66------------|
A|----------------------------------------| x12
E|----------------------------------------|

After 8 times of the Intro Guitar, Guitar 2 plays along with this again:

1:24
e|---------12-12--11-11--------12-12--11-11--9-9--11-11-----|
B|--12-12---------------12-12-------------------------------|
G|----------------------------------------------------------|
D|----------------------------------------------------------|
A|----------------------------------------------------------| x4
E|----------------------------------------------------------|

Chorus 1:37
e|-------------------------------------------------------------|
B|-------------------------------------------------------------|
G|-------------------------------------------------------------|
D|-------------------------------------------------------------|
A|-66666666-99999999-1010101010101010--14-14-14-14-13-13-13-13-| x4
E|-44444444-77777777-9-9-9-9-9-9-9-9---12-12-12-12-11-11-11-11-|

2:02
e|----------------------------------------|
B|----------------------------------------|
G|----------------------------------------|
D|----------------------------------------|
A|-6~-------------------------------------|
E|-4~-------------------------------------|

Bridge 2:09

e|----12-12-12-11-11-11-11----12-12-12-11-11-11-11---|
B|-12-*--*--*--*--*--*--*--12-*--*--*--*--*--*--*----|
G|-*-----------------------*-------------------------|
D|---------------------------------------------------|
A|---------------------------------------------------|
E|---------------------------------------------------|

e|-----------------------------------------------------|
B|-12-12-12-12-14-14-14-14-14-12-12-12-12-12-12-12-12--|
G|-*--*--*--*--*--*--*--*--*--*--*--*--*--*--*--*--*---|
D|-----------------------------------------------------|
A|-----------------------------------------------------| x4 (the whole Bridge 4 times)
E|-----------------------------------------------------|

* = palm mute

Chorus 2:34
e|-------------------------------------------------------------|
B|-------------------------------------------------------------|
G|-------------------------------------------------------------|
D|-------------------------------------------------------------|
A|-66666666-99999999-1010101010101010--14-14-14-14-13-13-13-13-| x4
E|-44444444-77777777-9-9-9-9-9-9-9-9---12-12-12-12-11-11-11-11-|

Ending 3:00
e|----------------------------------------|
B|----------------------------------------|
G|----------------------------------------|
D|----------------------------------------|
A|-6~-------------------------------------|
E|-4~-------------------------------------|
Добавлено: 30.04.2012
Другие материалы по этой песне:
  • Аккорды и текст

Страница создана 30.04.2012
http://primanota.ru/the-crowns/let-it-go-chords.htm
Привет, Гость.
Предлагаем пройти революционный курс по гитаре.
Подарок от PrimaNota.Ru, забирай!