PrimaNota.ru - самый крупный в мире бесплатный архив песенных текстов, аккордов, табулатур и нот


The Crisis - Rocky Road Ice Cream - таба, видео

Регистрация Запомнить меня
Войти через:  Facebook Google Twitter Vk Yandex Mail.ru

The Crisis - Rocky Road Ice Cream - таба, видео

Печатать
Просмотров: 116
The Crisis 

Rocky Road Ice Cream
intro
guitar 2
E||--------------------|--------------------|--------------------|
B||-p.m.—--------------|--------------------|--------------------|
G||--------------------|--------------------|--------------------|
D||-5-5-5-5-5-5-5-5-5--|-7-7-7-7-7-7-7-7-7--|-101010101010101010-|
A||-5-5-5-5-5-5-5-5-5--|-7-7-7-7-7-7-7-7-7--|-101010101010101010-|
E||-3-3-3-3-3-3-3-3-3--|-5-5-5-5-5-5-5-5-5--|-8-8-8-8-8-8-8-8-8--|

E||--------------------|--------------------|--------------------|
B||---p.m.-------------|--------------------|--------------------|
G||--------------------|--------------------|--------------------|
D||-121212121212121212-|--------------------|--------------------|
A||-121212121212121212-|--------------------|--------------------|
E||-101010101010101010-|--------------------|--------------------|

guitar 1
E||--------------------|--------------------|--------------------|
B||-p.m.—--------------|--------------------|--------------------|
G||--------------------|--------------------|--------------------|
D||-5-5-5-5-5-5-5-5-5--|-7-7-7-7-7-7-7-7-7--|-101010101010101010-|
A||-5-5-5-5-5-5-5-5-5--|-7-7-7-7-7-7-7-7-7--|-101010101010101010-|
E||-3-3-3-3-3-3-3-3-3--|-5-5-5-5-5-5-5-5-5--|-8-8-8-8-8-8-8-8-8--|

E||--------------------|--------------------|--------------------|
B||---p.m.-------------|--------------------|--------------------|
G||--------------------|--------------------|--------------------|
D||-121212121212121212-|--------------------|--------------------|
A||-121212121212121212-|--------------------|--------------------|
E||-101010101010101010-|--------------------|--------------------|

Verse
guitar 2
E||--------------------|--------------------|--------------------|
B||-p.m.—--------------|--------------------|--------------------|
G||--------------------|--------------------|--------------------|
D||-5-5-5-5-5-5-5-5-5--|-7-7-7-7-7-7-7-7-7--|-101010101010101010-|
A||-5-5-5-5-5-5-5-5-5--|-7-7-7-7-7-7-7-7-7--|-101010101010101010-|
E||-3-3-3-3-3-3-3-3-3--|-5-5-5-5-5-5-5-5-5--|-8-8-8-8-8-8-8-8-8--|

E||--------------------|--------------------|--------------------|
B||---p.m.-------------|--------------------|--------------------|
G||--------------------|--------------------|--------------------|
D||-121212121212121212-|--------------------|--------------------|
A||-121212121212121212-|--------------------|--------------------|
E||-101010101010101010-|--------------------|--------------------|


guitar 1
E||--------------------|--------------------|--------------------|
B||-----—--------------|--------------------|--------------------|
G||--------------------|--------------------|--------------------|
D||-5-5----------------|-7-7----------------|-1010---------------|
A||-5-5----------------|-7-7----------------|-1010---------------|
E||-3-3----------------|-5-5----------------|-8-8----------------|

E||--------------------|--------------------|--------------------|
B||--------------------|--------------------|--------------------|
G||--------------------|--------------------|--------------------|
D||-1212---------------|--------------------|--------------------|
A||-1212---------------|--------------------|--------------------|
E||-1010---------------|--------------------|--------------------|


Chorus
Both guitars
E||--------------------|--------------------|--------------------|
B||-----—--------------|--------------------|--------------------|
G||--------------------|--------------------|--------------------|
D||-5---5---5---5---5--|-7---7---7---7---7--|-10—-10—-10—-10--10-|
A||-5---5---5---5---5--|-7---7---7---7---7--|-10—-10—-10—-10--10-|
E||-3---3---3---3---3--|-5---5---5---5---5--|-8---8---8---8---8--|

E||--------------------|--------------------|--------------------|
B||--------------------|--------------------|--------------------|
G||--------------------|--------------------|--------------------|
D||-12—-12—-12—-12--12-|--------------------|--------------------|
A||-12—-12—-12—-12--12-|--------------------|--------------------|
E||-10—-10—-10—-10--10-|--------------------|--------------------|

Добавлено: 21.05.2012
Вам также может быть интересно:
Другие материалы по этой песне:
  • Аккорды и текст

Страница создана 21.05.2012
http://primanota.ru/the-crisis/rocky-road-ice-cream-chords.htm
Привет, Гость.
Предлагаем пройти революционный курс по гитаре.
Подарок от PrimaNota.Ru, забирай!