PrimaNota.ru - самый крупный в мире бесплатный архив песенных текстов, аккордов, табулатур и нот


The Crimson Armada - Soulcrusher - таба, видео

Регистрация Запомнить меня
Войти через:  Facebook Google Twitter Vk Yandex Mail.ru

The Crimson Armada - Soulcrusher - таба, видео

Печатать
Просмотров: 94
-------------------------------------------------------------------------------
                             Soulcrusher Solo – The Crimson Armada
-------------------------------------------------------------------------------
Tabbed by:Ozan Kalpak (TheTurk92)
Email:ozanusa92@hotmail.com

Tuning:Drop B (B-E-A-D-F♯-B)

B|---------------------------------------------------------------------------|
F|------6h7p6------6h7/14~~~~-13h14p13--13-----------------------------------|
D|-----------h8p7h8-------------------14--14-13h14p13\11h13p11-10h11p10--10--|
A|---------------------------------------------------------------------12--12|
E|---------------------------------------------------------------------------|
B|---------------------------------------------------------------------------|

B|--------------------------------------9p6---12p9---15p12-----18p15---------|
F|-----------------------------------------8------11------14--------17-------|
D|------------------------------------------9-------12------15--------18-15--|
A|-11h12p11\9h11p9\8h9p8\6h8p6-5/6\5--7------------------------------------17|
E|-----------------------------------8---------------------------------------|
B|---------------------------------------------------------------------------|

B|-------------15-18p15------15-18p15----------------------15-18p15------15--|
F|-----------17--------17--17--------17------------------17--------17--17----|
D|------15-18------------18------------18-15--------15-18------------18------|
A|-14-17------------------------------------17-14-17-------------------------|
E|---------------------------------------------------------------------------|
B|---------------------------------------------------------------------------|

B|-h19p14h15h17p15p14-h21p14h15h17p15p14-h19p14h15h17p15p14-h22-21b~~~~~~~---|
F|---------------------------------------------------------------------------|
D|---------------------------------------------------------------------------|
A|---------------------------------------------------------------------------|
E|---------------------------------------------------------------------------|
B|---------------------------------------------------------------------------|
************************************

| /   slide up
| \   slide down
| h   hammer-on
| p   pull-off
| ~   vibrato
| +   harmonic
| x   Mute note
| b   Bend
| pb  Pre-bend
| br  Bend release
| pbr Pre-bend release
| brb Bend release bend
Добавлено: 19.09.2013
Вам также может быть интересно:
Другие материалы по этой песне:
  • Аккорды и текст

Страница создана 10.08.2013
http://primanota.ru/the-crimson-armada/soulcrusher-chords.htm
Привет, Гость.
Предлагаем пройти революционный курс по гитаре.
Подарок от PrimaNota.Ru, забирай!