PrimaNota.ru - самый крупный в мире бесплатный архив песенных текстов, аккордов, табулатур и нот


The Cribs - Wish I Knew You In The 90S - таба, видео

Регистрация Запомнить меня
Войти через:  Facebook Google Twitter Vk Yandex Mail.ru

The Cribs - Wish I Knew You In The 90S - таба, видео

Печатать
Просмотров: 30
-------------------------------------------------------------------------------
                             Wish I Knew You in the 90's - The Cribs
-------------------------------------------------------------------------------
Tabbed by: the_watch_trick
E-mail: k.borowski@live.co.uk

Tuning:Standard

Intro 
e|---------------------------------------------------------------------------|
B|---------------------------------------------------------------------------|
G|--555------222-------------------------------------------------------------|
D|-----xx555----xx222-333xx000-22222-----------------------------------------| X2
A|----------------------------------333--------------------------------------|
E|---------------------------------------------------------------------------|

Verse

  "I only have old videos but it's alright cos now i know ya"
e|---------------------------------------------------------------------------|
B|---------------------------------------------------------------------------|
G|--------------------------------------7------------------------5-----------|
D|----7---------------------------------7------------------------5-----------|  X4
A|----7---------------------------------x------------------------x-----------|
E|----5---------------------------------5------------------------3-----------|

Pre-Chorus - Don't think this is 100% accurate cos my ear isn't that good, so 
             would appreciate any corrections.

  Oh Yeah, Oh Yeah, Oh Yeah No I just don't care 
e|---------------------------------------------------------------------------|
B|---------------------------------------------------------------------------|
G|-----7----7---9----9--10---------------------------------------------------| X2
D|-----7----7---9----9--10-------------------7-------------------------------|
A|-----5----5---7----7--8--------------------7-------------------------------|
E|-------------------------------------------5-------------------------------|

Chorus - Same as intro, played 4 times
Verse Again 
Pre Chrous again, but played 4 times instead of twice 
Chorus, Played 5 times instead of 4 

Outro 

e|---------------------------------------5------------------------------------|
B|----------------------------------------------------------------------------|
G|--555------222-------333xx222-555xx-----------------------------------------|
D|-----xx555----xx222----------------5550-------------------------------------|
A|----------------------------------------------------------------------------|
E|----------------------------------------------------------------------------|

And that's it, pretty straight forward but a great b-side nonetheless. I do appreciate any improvements and 
criticisms etc.


************************************

| /   slide up
| \   slide down
| h   hammer-on
| p   pull-off
| ~   vibrato
| +   harmonic
| x   Mute note
| b   Bend
| pb  Pre-bend
| br  Bend release
| pbr Pre-bend release
| brb Bend release bend

************************************
Добавлено: 11.03.2016
Другие материалы по этой песне:
  • Аккорды и текст

Страница создана 11.03.2016
http://primanota.ru/the-cribs/wish-i-knew-you-in-90s-chords.htm
Привет, Гость.
Предлагаем пройти революционный курс по гитаре.
Подарок от PrimaNota.Ru, забирай!