PrimaNota.ru - самый крупный в мире бесплатный архив песенных текстов, аккордов, табулатур и нот


The Cribs - Things Arent Gonna Change - аккорды и текст, таба, видео

Регистрация Запомнить меня
Войти через:  Facebook Google Twitter Vk Yandex Mail.ru

The Cribs - Things Arent Gonna Change - аккорды и текст, таба, видео

Печатать
Просмотров: 102
Things Arent Gonna Change
The Cribs
-------------------------------------------------------------------------------
                THINGS AREN'T GONNA CHANGE – The Cribs
-------------------------------------------------------------------------------
Tabbed by: Supergrass
Feel free to add comments/suggestions/amendments and rate.
This is the first tab I've ever done so go easy.
The rhythm and exact strokes might need a small bit of tweaking also.

Tuning: Standard

Chords used in song:

D6   =  ( x x 14 13 14 12 )
D    =  ( x x 14 13 12 12 )
G6   =  ( x x 17 16 17 15 )
G    =  ( x x 17 16 15 15 )
D    =  ( x x 0 2 3 2 )
F#7  =  ( 2 4 2 3 2 2 )
Bm   =  ( x 2 4 4 3 2 )
Em   =  ( 0 2 2 0 0 0 )
A    =  ( x 0 2 2 2 0 )
Aaug =  ( x 11 10 11 9 x )


Intro/Verses:

   D6           D  D6 D          D6           D  D6 D
e|-12---12-12---12-12-12---------12---12-12---12-12-12-----------------------|
B|-14---14-14---12-14-12---------14---14-14---12-14-12-----------------------|
G|-13---13-13---13-13-13---------13---13-13---13-13-13-----------------------|
D|-14---14-14---14-14-14---------14---14-14---14-14-14-----------------------|
A|---------------------------------------------------------------------------|
E|---------------------------------------------------------------------------|

   G6       G               G6       G
e|-15-15-15-15-15-15-15-----15-15-15-15-15-15-15-----------------------------|
B|-17-17-17-15-15-15-15-----17-17-17-15-15-15-15-----------------------------|
G|-16-16-16-16-16-16-16-----16-16-16-16-16-16-16-----------------------------|
D|-17-17-17-17-17-17-17-----17-17-17-17-17-17-17-----------------------------|
A|---------------------------------------------------------------------------|
E|---------------------------------------------------------------------------|


Chorus:
                   D
And though I don't want you to stay

                   F#7
There's something about the way that

    Bm
You say the words that you've rehearsed now

Em                    A
   I think I should explain

Em                  A
Things aren't gonna change

    D                    F#7
And last October when it took over

    Bm
The boy was grabbed by his new controller

Em                      A
   I'm shifting all the blame

Em                   A
But I still feel the same, yeah!


Between end of chorus and 2nd verse:

   D6           D  D6 D          D6           D  D6 D
e|-12---12-12---12-12-12---------12---12-12---12-12-12-----------------------|
B|-14---14-14---12-14-12---------14---14-14---12-14-12-----------------------|
G|-13---13-13---13-13-13---------13---13-13---13-13-13-----------------------|
D|-14---14-14---14-14-14---------14---14-14---14-14-14-----------------------|
A|---------------------------------------------------------------------------|
E|---------------------------------------------------------------------------|

   D6           D  D6 D          Aaug
e|-12---12-12---12-12-12-----------------------------------------------------|
B|-14---14-14---12-14-12---------10-10-10-10---------------------------------|
G|-13---13-13---13-13-13---------12-12-12-12---------------------------------|
D|-14---14-14---14-14-14---------11-11-11-11---------------------------------|
A|-------------------------------12-12-12-12---------------------------------|
E|---------------------------------------------------------------------------|


2nd Verse: Repeat verse above

Chorus: as above

Solo: Still being worked on, hopefully that'll be up soon or someone can help out.


Outro:

Em                     A           Em              A
   It's got nothing to do with the way I am around you

(Repeat to fade)
Добавлено: 07.03.2012
Другие материалы по этой песне:
  • Аккорды и текст

Страница создана 07.03.2012
http://primanota.ru/the-cribs/things-arent-gonna-change-chords.htm
Привет, Гость.
Предлагаем пройти революционный курс по гитаре.
Подарок от PrimaNota.Ru, забирай!