PrimaNota.ru - самый крупный в мире бесплатный архив песенных текстов, аккордов, табулатур и нот


The Cribs - The Watch Trick - текст песни, таба, видео

Регистрация Запомнить меня
Войти через:  Facebook Google Twitter Vk Yandex Mail.ru

The Cribs - The Watch Trick - текст песни, таба, видео

Печатать
Просмотров: 290
Уроки эстрадного вокала в Санкт-Петербурге
Авторы музыки: Gary Jarman, Ryan Jarman, Ross Jarman
Авторы текста: Gary Jarman, Ryan Jarman, Ross Jarman
hi i was just messing about before and worked the intro out perfectly so here it is

e--------9--9-------------55------------22-------------44----|
 ---10---10-10--------7---77--------3---33--------5---55-----|
 ------------------------------------------------------------|
 ------------------------------------------------------------|
 ------------------------------------------------------------|
E------------------------------------------------------------|

the bass also goes like this

 -----------------------------------|
 ----------------------------2--22--|
 --------------------2--22----------|
E---5--55---2--22-------------------|
Добавлено: 02.04.2012
Другие материалы по этой песне:
  • Аккорды и текст

Страница создана 17.03.2012
http://primanota.ru/the-cribs/the-watch-trick-chords.htm
Привет, Гость.
Предлагаем пройти революционный курс по гитаре.
Подарок от PrimaNota.Ru, забирай!