PrimaNota.ru - самый крупный в мире бесплатный архив песенных текстов, аккордов, табулатур и нот


The Cribs - Regina Dont Get Lost - таба, видео

Регистрация Запомнить меня
Войти через:  Facebook Google Twitter Vk Yandex Mail.ru

The Cribs - Regina Dont Get Lost - таба, видео

Печатать
Просмотров: 48
-------------------------------------------------------------------------------
                     Regina Don't Get Lost - The Cribs
-------------------------------------------------------------------------------
Tabbed by: Rory H
E-mail: rdeh10@googlemail.com

Tuning: EADGBe

Hey guys! Another Cribs tab for you here :) This time it is another B-side 'Regina Don't Get Lost'. 
Excellent track with a wonderful tone to it. This isn't perfect as usual but definitely sounds fine to
me! If you have any improvements or corrections, be sure to leave them in the comments, or hit me up
with an email :)

INTRO:
e|-----------------------------------|--------------------------------|
B|--------11-------11-------11-------|--------8-------8-------8-------|
G|-----8-----8--------8---------8----|----10----10------10-------10---|
D|-10----------10-------10--------10-|-8-----------8-------8--------8-|
A|-----------------------------------|--------------------------------|
E|-----------------------------------|--------------------------------|

e|-----------------------------------|--------------------------------|---------------------|
B|--------11-------11-------11-------|--------8-------8-------8-------|---------------------|
G|-----8-----8--------8---------8----|----10----10------10-------10---|---------------------|
D|-10----------10-------10--------10-|-8-----------8-------8--------8-|---------------------|
A|-----------------------------------|--------------------------------|-/10~----------------|
E|-----------------------------------|--------------------------------|---------------------|

VERSE 1:
e|------------------------|----------------------------------|---------------------------|
B|------------------------|----------------------------------|---------------------------|
G|------------------------|----------------------------------|---------------------------|
D|------------------------|-------------------------8--8-8-8-|---------------------------|
A|-10-8-10-8-6-x-6--6-6-6-|-10-10-8-10-\6-6-x-6-6-6----------|-10-10-8-10-\6-6-x-6-------|
E|------------------------|----------------------------------|---------------------6-6-6-|

e|----------------------------------|---------------------------|------------------------|
B|----------------------------------|---------------------------|------------------------|
G|----------------------------------|---------------------------|------------------------|
D|-------------------------8--8-8-8-|---------------------------|------------------------|
A|-10-10-8-10-\6-6-x-6-6-6----------|-10-8-10-8-\6-6-x-6--6-6-6-|-10-10-8-10-\6--6-6-6-6-|
E|----------------------------------|---------------------------|------------------------|

PRECHORUS:
e|---------------------------|-------------------------|---------------------------|
B|---------------------------|-------------------------|---------------------------|
G|---------------------------|-------------------------|---------8-----------------|
D|---------8-----------------|---------8---------------|-10-8-10----10-10-10-10-10-|
A|-10-8-10----10-10-10-10-10-|-10-8-10----10-10-10-8-8-|---------------------------|
E|---------------------------|-------------------------|---------------------------|

e|-----------------------|-----------------------------|------------------------------------|
B|-----------------------|----------11-----------------|----------11--11-11-13--------------|
G|---------8--8-8-10-----|-12-10-12-----12-12-12-12-12-|-12-10-12--------------7--7-7-7-7-7-|
D|-10-8-10-----------8-8-|-----------------------------|------------------------------------|
A|-----------------------|-----------------------------|------------------------------------|
E|-----------------------|-----------------------------|------------------------------------|

e|------------------------|-------------------------|
B|------------------------|-----8-------------------|
G|-8--8-8-8-10-10-8-8-7-7-|8-10---10--8--8-8-7--7-7-|
D|------------------------|-------------------------|
A|------------------------|-------------------------|
E|------------------------|-------------------------|

CHORUS:
e|-------------------------------------6--------------------------------------------------------------------|
B|------8---------8---------8--------8---8---11-11-11-11-11----11-11-11-11-11----11-11-11-11----------------|
G|-8-10---10-8-10--10--8-10---10-7-7---------10-10-10-10-10-8--10-10-10-10-10-8--10-10-10-10-10p8-0-7-7-0-8-|
D|-(8--8-8--8-8--8----8-8--8-8)-----------------------------------------------------------------------------|
A|----------------------------------------------------------------------------------------------------------|
E|----------------------------------------------------------------------------------------------------------|

e|-------------------------------------6--------------------------------------------------------------------|
B|------8---------8---------8--------8---8---11-11-11-11-11----11-11-11-11-11----11-11-11-11----------------|
G|-8-10---10-8-10--10--8-10---10-7-7---------10-10-10-10-10-8--10-10-10-10-10-8--10-10-10-10-10p8-0-7-7-0-8-|
D|-(8--8-8--8-8--8----8-8--8-8)-----------------------------------------------------------------------------|
A|----------------------------------------------------------------------------------------------------------|
E|----------------------------------------------------------------------------------------------------------|

e|---------------|
B|---------------|
G|---------------|
D|---------------|
A|-/10-----------|
E|---------------|

VERSE 2:
e|------------------------|----------------------------------|---------------------------|
B|------------------------|----------------------------------|---------------------------|
G|------------------------|----------------------------------|---------------------------|
D|------------------------|-------------------------8--8-8-8-|---------------------------|
A|-10-8-10-8-6-x-6--6-6-6-|-10-10-8-10-\6-6-x-6-6-6----------|-10-10-8-10-\6-6-x-6-------|
E|------------------------|----------------------------------|---------------------6-6-6-|

e|------------------------|------------------------|------------------|
B|------------------------|------------------------|------------------|
G|------------------------|------------------------|------------------|
D|--------------0---------|------------------------|------------------|
A|-----8-10\6-6---6-6-6-6-|-5-6-6-6-5h6-6-6--6-6-6-|-5h6-6-6-6--8-8-8-|
E|-5h6--------------------|------------------------|------------------|

PRECHORUS:
e|---------------------------|-------------------------|---------------------------|
B|---------------------------|-------------------------|---------------------------|
G|---------------------------|-------------------------|---------8-----------------|
D|---------8-----------------|---------8---------------|-10-8-10----10-10-10-10-10-|
A|-10-8-10----10-10-10-10-10-|-10-8-10----10-10-10-8-8-|---------------------------|
E|---------------------------|-------------------------|---------------------------|

e|-----------------------|-----------------------------|------------------------------------|
B|-----------------------|----------11-----------------|----------11--11-11-13--------------|
G|---------8--8-8-10-----|-12-10-12-----12-12-12-12-12-|-12-10-12--------------7--7-7-7-7-7-|
D|-10-8-10-----------8-8-|-----------------------------|------------------------------------|
A|-----------------------|-----------------------------|------------------------------------|
E|-----------------------|-----------------------------|------------------------------------|

e|---------------------------------------------------------------------------|
B|---------------------------------------------------------------------------|
G|-8--8-8-8-8--8-8-8--8-8-10-10--/12-12-12-12-12-12-10-10-10-10-10-10-10-----|
D|---------------------------------------------------------------------------|
A|---------------------------------------------------------------------------|
E|---------------------------------------------------------------------------|

CHORUS:
e|-------------------------------------6--------------------------------------------------------------------|
B|------8---------8---------8--------8---8---11-11-11-11-11----11-11-11-11-11----11-11-11-11----------------|
G|-8-10---10-8-10--10--8-10---10-7-7---------10-10-10-10-10-8--10-10-10-10-10-8--10-10-10-10-10p8-0-7-7-0-8-|
D|-(8--8-8--8-8--8----8-8--8-8)-----------------------------------------------------------------------------|
A|----------------------------------------------------------------------------------------------------------|
E|----------------------------------------------------------------------------------------------------------|

e|-------------------------------------6--------------------------------------------------------------------|
B|------8---------8---------8--------8---8---11-11-11-11-11----11-11-11-11-11----11-11-11-11----------------|
G|-8-10---10-8-10--10--8-10---10-7-7---------10-10-10-10-10-8--10-10-10-10-10-8--10-10-10-10-10p8-0-7-7-0-8-|
D|-(8--8-8--8-8--8----8-8--8-8)-----------------------------------------------------------------------------|
A|----------------------------------------------------------------------------------------------------------|
E|----------------------------------------------------------------------------------------------------------|

BRIDGE:
e|---------------------|---------------------|--------------------|-----------------------|
B|------11---11--------|--------8---8--------|-------9---9--------|-------8----8---8------|
G|----8---8------------|-----10--10----------|-----8--8-----------|-----10--10--10---10---|
D|-10------10----------|10-9-------9---------|9-------------------|---8-------8---8----8--|
A|---------------------|---------------------|--11-----11---------|11---------------------|
E|---------------------|---------------------|--------------------|-----------------------|

e|-----------------------------------|--------------------------------|
B|--------11-------11-------11-------|--------8-------8-------8-------|
G|-----8-----8--------8---------8----|----10----10------10-------10---|
D|-10----------10-------10--------10-|-8-----------8-------8--------8-|
A|-----------------------------------|--------------------------------|
E|-----------------------------------|--------------------------------|

CHORUS:
e|----------------------------------6--------------------------------------------------------------------|
B|-8--8--------8---------8--------8---8---11-11-11-11-11----11-11-11-11-11-8--11-11-11-11----------------|
G|-10-10--8-10--10--8-10---10-7-7---------10-10-10-10-10-8--10-10-10-10-10----10-10-10-10-10p8-0-7-7-0-8-|
D|-8--8-(8-8--8----8-8--8-8)-----------------------------------------------------------------------------|
A|-------------------------------------------------------------------------------------------------------|
E|-------------------------------------------------------------------------------------------------------|

e|----------------------------------------------------------------------------------------------------------|
B|------8---------8---------8----------6-----11-11-11-11-11----11-11-11-11-11----11-11-11-11----------------|
G|-8-10---10-8-10--10--8-10---10-7-7-7---8---10-10-10-10-10-8--10-10-10-10-10-8--10-10-10-10-10p8-0-7-7-0-8-|
D|-(8--8-8--8-8--8----8-8--8-8)-----------------------------------------------------------------------------|
A|----------------------------------------------------------------------------------------------------------|
E|----------------------------------------------------------------------------------------------------------|

END:
e|---------------|
B|---------------|
G|---------------|
D|---------------|
A|-/10~~~~-------|
E|---------------|

************************************

| /   slide up
| \   slide down
| h   hammer-on
| p   pull-off
| ~   vibrato
| +   harmonic
| x   Mute note
| b   Bend
| pb  Pre-bend
| br  Bend release
| pbr Pre-bend release
| brb Bend release bend

************************************
Добавлено: 11.03.2016
Другие материалы по этой песне:
  • Аккорды и текст

Страница создана 11.03.2016
http://primanota.ru/the-cribs/regina-dont-get-lost-chords.htm
Привет, Гость.
Предлагаем пройти революционный курс по гитаре.
Подарок от PrimaNota.Ru, забирай!