PrimaNota.ru - самый крупный в мире бесплатный архив песенных текстов, аккордов, табулатур и нот


The Cribs - Pink Snow - таба, видео

Регистрация Запомнить меня
Войти через:  Facebook Google Twitter Vk Yandex Mail.ru

The Cribs - Pink Snow - таба, видео

Печатать
Просмотров: 63
Уроки эстрадного вокала в Санкт-Петербурге
-------------------------------------------------------------------------------
                             PINK SNOW - The Cribs
-------------------------------------------------------------------------------
Tabbed by: Cousie95

Tuning: Standard (Ryan may play it in a different tuning, album only came out today so not sure)
Here's what I've figured out so far-- Please don't take spacing and timing literally just the 
notes- listen to the track for timings. Don't make many tabs but I LOVE the song.

INTRO
e|----------------------------|         ----------------------|
B|-----------------7----------|         -----------7----------|
G|--------7----10-------------| X2      -------9------9-------| X2
D|--7--h9---9---------9-------|         --7--------------7----|
A|----------------------------|         ----------------------|
E|----------------------------|         ----------------------|

e|----------------------------|         ----------------------|
B|-------------10-------------|         -----------7----------|
G|--------7---------7---------| X2      -------9-------9------| X2
D|--7--h9---9-----------9-----|         --7---------------7---|
A|----------------------------|         ----------------------|
E|----------------------------|         ----------------------|

But Were you...                         Ill Try and be brave...
e|----------------------------|         ----------------------|
B|-----------------7----------|         -----------7----------|
G|--------7----10-------------| X2      -------9------9-------| X2
D|--7--h9---9----------9------|         --7--------------7----|
A|----------------------------|         ----------------------|
E|----------------------------|         ----------------------|

You're sitting behind...                Sometimes...
e|----------------------------|         ----------------------|
B|-------------10-------------|         -----------7----------|
G|--------7---------7---------| X2      ------9--------9------| X2
D|--7--h9---9-----------9-----|         --7---------------7---|
A|----------------------------|         ----------------------|
E|----------------------------|         ----------------------|

Were you better..              To all my sisters...
e|----------------------------------------------------------------|         
B|-----------------7---------------------------7------------7-----|        
G|--------7----10---------------------7----10----------10-----10--|      
D|--7--h9---9---------9---------7--h9---9---------9--9----9------9|        
A|----------------------------------------------------------------|         
E|----------------------------------------------------------------|         

I'll try and be brave for you, Ill try and be brave for you
e|-----------------------------------------------------7----------|
B|-----------7---------------------------7-------10-------7-------|
G|-------9------9--------------------9------9----------------9----| 
D|--7--------------7------------7--------------7-----7------------|
A|----------------------------------------------------------------|
E|----------------------------------------------------------------|

(Distorts)                        Eyy
e|---------------------------------------------------------------------------|
B|---------------------------------------------------------------------------|
G|--7-7-7-7-7-7-7-7-7-7-7-7-7-7-7-7-9-9-9-9-9-9-9-9-9-9-9-9-9-9-9-9----------|
D|--7-7-7-7-7-7-7-7-7-7-7-7-7-7-7-7-7-7-7-7-7-7-7-7-7-7-7-7-7-7-7-7----------|
A|---------------------------------------------------------------------------|
E|---------------------------------------------------------------------------|

Slightly bending or vibrating some notes listen closely, tried to tab how it sounds but its just 14s and 15s)
e|------------------------------------------------------------------------------------------|
B|------------------------------------------------------------------------------------------|
G|--14~--14~--14b14~--14~--14b--14b14~-14b14~--15~--15~--15b15~--15~--15~--15b15~--15b15~---| X3
D|------------------------------------------------------------------------------------------|
A|------------------------------------------------------------------------------------------|
E|------------------------------------------------------------------------------------------|

CHORUS

Know..                                                          Bird that sung..
e|-----10----12----14--------10----12----14---------12----14-------12-10-9-10-9------------|  |
B|--/12----12----12----12--12----12----12----12-10------10----10-10-------------10-/12-----|  |
                                                                                              |
                                                                                              |X2
                                                                                              |  
e|-----10----12----14--------10----12----14--------10----12---14-------10----12----14------|  |
B|---12----12----12----12--12----12----12---12--14-----14---14---14--14----14----14--------|  |


Were you better..              To all my sisters...
e|----------------------------------------------------------------|         
B|-----------------7---------------------------7------------7-----|        
G|--------7----10---------------------7----10----------10-----10--|      
D|--7--h9---9---------9---------7--h9---9---------9--9----9------9|        
A|----------------------------------------------------------------|         
E|----------------------------------------------------------------|         

I'll try and be brave for you, 
e|------------------------|
B|-----------7------------|
G|-------9------9---------|  X2
D|--7--------------7------|
A|------------------------|
E|------------------------|

Maybe I'll never know            But something..
e|---------------------------------------------------------7------|       
B|-------------10---------------------------10-------10------7----|        
G|--------7---------7------------------7--------9--------------9--|      
D|--7--h9---9-----------9--------7--h9---9---------7-----7--------|         
A|----------------------------------------------------------------|         
E|----------------------------------------------------------------|        

A cherry blossom grows           Bury me with Pink Snow
e|----------------------------------------------------------------|
B|-----------7----------------------------7-------10----7---------|
G|-------9------9---------------------9------9--------------9-----| 
D|--7--------------7-------------7--------------7-----7-----------|
A|----------------------------------------------------------------|
E|----------------------------------------------------------------|

Were you better..              To all my sisters...
e|----------------------------------------------------------------|         
B|-----------------7---------------------------7------------7-----|        
G|--------7----10---------------------7----10----------10-----10--|      
D|--7--h9---9---------9---------7--h9---9---------9--9----9------9|        
A|----------------------------------------------------------------|         
E|----------------------------------------------------------------|   

Try and be Brave...             Try and be Brave..
e|----------------------------------------------------------------|
B|-----------7----------------------------7-------10----7---------|
G|-------9------9---------------------9------9--------------9-----| 
D|--7--------------7-------------7--------------7-----7-----------|
A|----------------------------------------------------------------|
E|----------------------------------------------------------------|     

(Distorts)                        Eyy
e|---------------------------------------------------------------------------|
B|---------------------------------------------------------------------------|
G|--7-7-7-7-7-7-7-7-7-7-7-7-7-7-7-7-9-9-9-9-9-9-9-9-s11-11b-11b-11b-12b-12b--|
D|--7-7-7-7-7-7-7-7-7-7-7-7-7-7-7-7-7-7-7-7-7-7-7-7--------------------------|
A|---------------------------------------------------------------------------|
E|---------------------------------------------------------------------------|

e|------------------------------------------------------------------------------------------|
B|------------------------------------------------------------------------------------------|
G|--14~--14~--14b14~--14~--14~--14b14~-14b14~--15~--15~--15b15~--15~--15~--15b15~--15b15~---| 
D|------------------------------------------------------------------------------------------| 
X3- 2nd run has a /16b, 3rd run has a \11b

CHORUS- NOTE THAT THE NOTES CHANGE IN THE 2ND PART

Know..                                                          Bird that sung..
e|-----10----12----14--------10----12----14---------12----14-------12-10-9-10-9------------|  |
B|--/12----12----12----12--12----12----12----12-10------10----10-10-------------10-/12-----|  |
                                                                                              |
                                                                                              |X2
                                                                                              |  
e|-----10----12----14--------10----12----14--------10----12---14-----17----14----------------||  
B|---12----12----12----12--12----12----12---12--14-----14---14----14----14----14--17--14--15-||


e|----------------------------------------------------------------|         
B|-----------------7---------------------------7------------7-----|        
G|--------7----10---------------------7----10----------10-----10--|      
D|--7--h9---9---------9---------7--h9---9---------9--9----9------9|        
A|----------------------------------------------------------------|         
E|----------------------------------------------------------------|   

e|------------------------|
B|-----------7------------|
G|-------9------9---------|  X2
D|--7--------------7------|
A|------------------------|
E|------------------------|

e|---------------------------------------------------------7------|       
B|-------------10---------------------------10-------10------10---|        
G|--------7---------7------------------7--------9---------------7-|      
D|--7--h9---9-----------9--------7--h9---9---------7-----7--------|         
A|----------------------------------------------------------------|         
E|----------------------------------------------------------------|    

e|------------------------|
B|-----------7------------|
G|-------9------9---------|  X2
D|--7--------------7------|
A|------------------------|
E|------------------------|

But Were you better...
e|------------------------|         
B|-----------------7------|      
G|--------7----10---------|  X2
D|--7--h9---9---------9---|      
A|------------------------|        
E|------------------------|
Try and be brave for you
e|-----------------------|         
B|-----------------------|        
G|------6---7-6----------|      
D|---4----4------4-------|        
A|-----------------------|         
E|-----------------------|   

Build Up
e|---------------------------------------------------------------------------|
B|---------------------------------------------------------------------------|
G|--7-7-7-7-7-7-7-7-7-7-7-7-7-7-7-7-9-9-9-9-9-9-9-9-9-9-9-9-9-9-9-9--5b------|
D|--7-7-7-7-7-7-7-7-7-7-7-7-7-7-7-7-7-7-7-7-7-7-7-7-7-7-7-7-7-7-7-7----------|
A|----------------------------------9-9-9-9-9-9-9-9-9-9-9-9-9-9-9-9----------|
E|---------------------------------------------------------------------------|

     Heavy                                      Soft
e|---------------------------------|     ------------------------------------|      |
B|--------------5--7-------8--7~---|     ------------------------------------|      |
G|--4--4--7--4--------4--4---------| X2  -------9---7--7-------9---7--7------|  X2  |All 3 Times 
D|---------------------------------|     --5--5---5-------5--5---5-----------|      |then heavy
A|---------------------------------|     ------------------------------------|      |riff once
E|---------------------------------|     ------------------------------------|      |

e|----------------------------------------------------------------------------|
B|---------------------12--------------------------12---------------12--------|
G|-----------12-----15-------------------12-----15------------15--------15----|
D|--12--h14------14-------14-----12--h14-----14-------14--14-----14--------14-|
A|----------------------------------------------------------------------------|
E|----------------------------------------------------------------------------|

e|----------------------------------------------------------------------------|
B|------------12----------------------12--------------------------------------|
G|-------14-------14-------------14-------14----------------------------------|
D|--12---------------12-----12----------------12------------------------------|
A|----------------------------------------------------------------------------|
E|----------------------------------------------------------------------------|

e|--------------------------------------------------------------------12------|
B|------------------15---------------------------15-------------15-------12---|
G|-----------12---------12---------------12----------12---------------------12|
D|--12--h14-----14---------14-----12--h14----14---------14--14-----14---------|
A|----------------------------------------------------------------------------|
E|----------------------------------------------------------------------------|

e|---------------------------------------------------------12------------------|
B|------------12----------------------12-------------15--------12--------------|
G|-------14-------14-------------14-------14----------------------14-----------|
D|--12---------------12-----12----------------12--12----12---------------------|
A|-----------------------------------------------------------------------------|
E|-----------------------------------------------------------------------------|

e|----------------------------------------------------------------------------|
B|---------------------12--------------------------12---------------12--------|
G|-----------12-----15-------------------12-----15------------15--------15----|
D|--12--h14------14-------14-----12--h14-----14-------14--14-----14--------14-|
A|----------------------------------------------------------------------------|
E|----------------------------------------------------------------------------|

e|---------------------------------------------------------12------------------|
B|------------12----------------------12-------------15--------12--------------|
G|-------14-------14-------------14-------14----------------------14-----------|
D|--12---------------12-----12----------------12--12----12---------------------|
A|-----------------------------------------------------------------------------|
E|-----------------------------------------------------------------------------|

e|----------------------------------------------------------------------------------------------
B|----------------------------------------------------------------------------------------------
G|--12-12-12-12-12-12-12-12-12-12-12-12-12-12-12-12-14-14-14-14-14-14-14-14-14-14-14-14-/16-16--
D|--12-12-12-12-12-12-12-12-12-12-12-12-12-12-12-12-12-12-12-12-12-12-12-12-12-12-12-12---------
A|----------------------------------------------------------------------------------------------
E|----------------------------------------------------------------------------------------------

G|-16-16-\7~(let ring)

That's it! Open to corrections and stuff, sounds pretty much there to me!

************************************

| /   slide up
| \   slide down
| h   hammer-on
| p   pull-off
| ~   vibrato
| +   harmonic
| x   Mute note
| b   Bend
| pb  Pre-bend
| br  Bend release
| pbr Pre-bend release
| brb Bend release bend

************************************
Добавлено: 15.11.2015
Другие материалы по этой песне:
  • Аккорды и текст

Страница создана 15.11.2015
http://primanota.ru/the-cribs/pink-snow-chords.htm
Привет, Гость.
Предлагаем пройти революционный курс по гитаре.
Подарок от PrimaNota.Ru, забирай!