PrimaNota.ru - самый крупный в мире бесплатный архив песенных текстов, аккордов, табулатур и нот


The Cribs - Pacific Time - таба, видео

Регистрация Запомнить меня
Войти через:  Facebook Google Twitter Vk Yandex Mail.ru

The Cribs - Pacific Time - таба, видео

Печатать
Просмотров: 48
-------------------------------------------------------------------------------
                             Pacific Time - The Cribs
-------------------------------------------------------------------------------
Tabbed by: Rory H
E-mail: rdeh10@googlemail.com

Tuning: EADGBe

A lovely track from 'For All My Sisters' and I've tabbed it to my best ability, hopefully you all find it
useful!! If you have any improvements or corrections, please leave them below or email me :)

Intro (There is a bit of sliding between notes, but just change between how you like :)):
e|----------------------------------------------------------------------------------------------------|
B|----------------------------------------------------------------------------------------------------|
G|-11--11-11--19-19--19-19--11-11--11-11--19-19--19-19--16-16--16-16--19-19--19-19--11-11--11-11--16--|
D|--x---x--x---x--x---x--x---x--x---x--x---x--x---x--x---x--x---x--x---x--x---x--x---x--x---x--x---x--|
A|--9---9--9--17-17--17-17---9--9---9--9--17-17--17-17--14-14--14-14--17-17--17-17---9--9---9--9--14--|
E|----------------------------------------------------------------------------------------------------|

e|--------------------------------------------------------------------------------------------------|
B|--------------------------------------------------------------------------------------------------|
G|-14-14/16--7--7--7--/14-14/16--7-7--/12-12--11-11--9--9-9--9-12--12-12--xx--6-6--6-6/14-14--14-14-|
D|--x--x-----x--x--x---x--x------x-x----x--x---x--x--x--x-x--x--x---x--x--xx--x-x--x-x-----x---x--x-|
A|-12-12/14--5--5--5--/12-12/14--5-5--/10-10---9--9--7--7-7--7-10--10-10--xx--4-4--4-4/12-12--12-12-|
E|--------------------------------------------------------------------------------------------------|

e|-------------------------------------------------------------------------------------------------------|
B|-------------------------------------------------------------------------------------------------------|
G|-11-11--11-11--19-19--19-19--11-11--11-11--19-19--19-19--16-16--16-16--19-19--19-19--11-11--11-11--16--|
D|--x--x---x--x---x--x---x--x---x--x---x--x---x--x---x--x---x--x---x--x---x--x---x--x---x--x---x--x---x--|
A|--9--9---9--9--17-17--17-17---9--9---9--9--17-17--17-17--14-14--14-14--17-17--17-17---9--9---9--9--14--|
E|-------------------------------------------------------------------------------------------------------|

e|--------------------------------------------------------------------------------------------------------|
B|--------------------------------------------------------------------------------------------------------|
G|-14-14/16--7--7--7--/14-14/16--7-7--/12-12-12--11-11--9--9-9--9-12--12-12--xx--6-6--6-6/14-14--14-14-14-|
D|--x--x-----x--x--x---x--x------x-x----x--x--x---x--x--x--x-x--x--x---x--x--xx--x-x--x-x-----x---x--x--x-|
A|-12-12/14--5--5--5--/12-12/14--5-5--/10-10-10---9--9--7--7-7--7-10--10-10--xx--4-4--4-4/12-12--12-12-12-|
E|--------------------------------------------------------------------------------------------------------|

Verse:
e|-----5\-----------------3-2--------------5\-----------------3-2--------|
B|---3---------3--------3-----2-2-2------3---------3--------3-----2-2-2/-|
G|-4---------2---2----4----------------4---------2---2----4--------------|
D|-----------------------------------------------------------------------|
A|-----------------------------------------------------------------------|
E|-----------------------------------------------------------------------|

e|-------5--------5--------5--------5--------------------------------------|
B|-------------------------------------------7--------7--------7--------7\-|
G|-6-7-6----6-7-6----6-7-6----6-7-6----6-7-6----6-7-6----6-7-6----6-7-6----|
D|-------------------------------------------------------------------------|
A|-------------------------------------------------------------------------|
E|-------------------------------------------------------------------------|

Chorus:
e|-----------------------------------------------------------------------------------|
B|-----------------------------------------------------------------------------------|
G|-------7--------6--------6--------6--6-6-7-6---------------------------------------|
D|-4-5-4----4-5-4----4-5-4----4-5-4------------4--4\2--2/9-9-9-9-9-9-9-9-7-7-7-7-7-0-|
A|-----------------------------------------------------------------------------------|
E|-----------------------------------------------------------------------------------|

e|-------5--------5--------5--------5--------------------------------------|
B|-------------------------------------------7--------7--------7--------7\-|
G|-6-7-6----6-7-6----6-7-6----6-7-6----6-7-6----6-7-6----6-7-6----6-7-6----|
D|-------------------------------------------------------------------------|
A|-------------------------------------------------------------------------|
E|-------------------------------------------------------------------------|

e|------------------------------------------------------------------------------------|
B|------------------------------------------------------------------------------------|
G|-------7--------6--------6--------6--6-6-7-6----------------------------------------|
D|-4-5-4----4-5-4----4-5-4----4-5-4------------4--4\2--2/9-9-9-9-9-9-9-9-7-7-7-7-7-7\-|
A|------------------------------------------------------------------------------------|
E|------------------------------------------------------------------------------------|

Verse:
e|-----5\-----------------3-2------------------5\-----------------3-2--------|
B|---3---------3--------3-----2-2-2-3-2------3---------3--------3-----2-2-2/-|
G|-4---------2---2----4--------------------4---------2---2----4--------------|
D|---------------------------------------------------------------------------|
A|---------------------------------------------------------------------------|
E|---------------------------------------------------------------------------|

Chorus:
e|-------5--------5--------5--------5---5------------------------------------------|
B|-----------------------------------------------7---7--------7--------7--------7\-|
G|-6-7-6----6-7-6----6-7-6----6-7-6---6----6-7-6---6----6-7-6----6-7-6----6-7-6----|
D|---------------------------------------------------------------------------------|
A|---------------------------------------------------------------------------------|
E|---------------------------------------------------------------------------------|

e|----------------------------------------------------------------------------------------|
B|----------------------------------------------------------------------------------------|
G|-------7--------6--6-7-6----------------------------2-2-2-2-2-2-4-4-4-4-4-4-2-2-2-2-2-0-|
D|-4-5-4----4-5-4----------4--4-4-4-4-4-4-4-4-4-5-5-5-------------------------------------|
A|----------------------------------------------------------------------------------------|
E|----------------------------------------------------------------------------------------|

e|-------5--------5--------5/7\5-5-----------------------------------| | |-------| |------|
B|-------------------------------------------7--------7--------7h8p7-| | |-------| |------|
G|-6-7-6----6-7-6----6-7-6-------------6-7-6----6-7-6----6-7-6-------| | |-16\11-| |-14\4-| <- These play
D|-------------------------------------------------------------------| | |-------| |------| over this 
A|-------------------------------------------------------------------| | |-------| |------| section
E|-------------------------------------------------------------------| | |-------| |------|

e|------------------------------------------------------------------------------------|
B|------------------------------------------------------------------------------------|
G|-------7--------6--------6--------6--6-6-7-6----------------------------------------|
D|-4-5-4----4-5-4----4-5-4----4-5-4------------4--4\2--2/9-9-9-9-9-9-9-9-7-7-7-7-7-7\-|
A|------------------------------------------------------------------------------------|
E|------------------------------------------------------------------------------------|

This Part:
e|----------------------------------------------------------------------------------------|
B|----------------------------------------------------------------------------------------|
G|-7--7--7-7--7-7--11-11--11-11--9-9--9-9--x-4--4-4--4-6-6-6-7-7-7-6-6-6-7-7-7-11-11-11-6-|
D|-x--x--x-x--x-x---x--x---x--x--x-x--x-x--x-x--x-x--x-x-x-x-x-x-x-x-x-x-x-x-x--x--x--x-x-|
A|-5--5--5-5--5-5---9--9---9--9--7-7--7-7--x-2--2-2--2-4-4-4-5-5-5-4-4-4-5-5-5--9--9--9-4-|
E|----------------------------------------------------------------------------------------|

e|---------------------------------------------------------------------------|
B|---------------------------------------------------------------------------|
G|-4--4--4-4--4-4--7-6--6--6--6--11--11--11-11--11-11--x--4-4--4-4--2-2--2-2-|
D|-x--x--x-x--x-x--x-x--x--x--x---x---x---x--x---x--x--x--x-x--x-x--x-x--x-x-|
A|-2--2--2-2--2-2--5-4--4--4--4---9---9---9--9---9--9--x--2-2--2-2--0-0--0-0-|
E|---------------------------------------------------------------------------|

e|----------------------------------------------------------------------------------------|
B|----------------------------------------------------------------------------------------|
G|-7--7--7-7--7-7--11-11--11-11--9-9--9-9--x-4--4-4--4-6-6-6-7-7-7-6-6-6-7-7-7-11-11-11-6-|
D|-x--x--x-x--x-x---x--x---x--x--x-x--x-x--x-x--x-x--x-x-x-x-x-x-x-x-x-x-x-x-x--x--x--x-x-|
A|-5--5--5-5--5-5---9--9---9--9--7-7--7-7--x-2--2-2--2-4-4-4-5-5-5-4-4-4-5-5-5--9--9--9-4-|
E|----------------------------------------------------------------------------------------|

e|---------------------------------------------------------------------------|
B|---------------------------------------------------------------------------|
G|-4--4--4-4--4-4--7-6--6--6--6--11--11--11-11--11-11--x--4-4--6-6--7-7--6-6-|
D|-x--x--x-x--x-x--x-x--x--x--x---x---x---x--x---x--x--x--x-x--x-x--x-x--x-x-|
A|-2--2--2-2--2-2--5-4--4--4--4---9---9---9--9---9--9--x--2-2--4-4--5-5--4-4-|
E|---------------------------------------------------------------------------|

e|----------------------------------|
B|----------------------------------|
G|-4--4--4-4--4-4--7-6--6--6--6--11-|
D|-x--x--x-x--x-x--x-x--x--x--x---x-|
A|-2--2--2-2--2-2--5-4--4--4--4---9-|
E|----------------------------------|

************************************

| /   slide up
| \   slide down
| h   hammer-on
| p   pull-off
| ~   vibrato
| +   harmonic
| x   Mute note
| b   Bend
| pb  Pre-bend
| br  Bend release
| pbr Pre-bend release
| brb Bend release bend

************************************
Добавлено: 11.03.2016
Другие материалы по этой песне:
  • Аккорды и текст

Страница создана 11.03.2016
http://primanota.ru/the-cribs/pacific-time-chords.htm
Привет, Гость.
Предлагаем пройти революционный курс по гитаре.
Подарок от PrimaNota.Ru, забирай!