PrimaNota.ru - самый крупный в мире бесплатный архив песенных текстов, аккордов, табулатур и нот


The Cribs - Mr Wrong - таба, видео

Регистрация Запомнить меня
Войти через:  Facebook Google Twitter Vk Yandex Mail.ru

The Cribs - Mr Wrong - таба, видео

Печатать
Просмотров: 55
-------------------------------------------------------------------------------
                             Mr Wrong - The Cribs
-------------------------------------------------------------------------------
Tabbed by: the_watch_trick
E-mail: k.borowski@live.co.uk

Tuning: standard

This is my first tab, so not 100%. All corrections courtesy of this cover 
-> https://www.youtube.com/watch?v=cZhkUi1H4WU
You'll have to work out timings etc. on yr own but it's fairly easy. 

  Intro
e|---------------------------------------------------------------------------------------|
B|---------------------------------------------------------------------------------------|
G|(DUDU)---------------------------------------------------------------------------------|
D|-5555----------------------------------------------------------------------------------|
A|-5555-x4-(each time strum 4 times then quickly slide up and back down the fretboard)---|
E|-3333----------------------------------------------------------------------------------|

  Verse
"It's not easy,  but it's harder to...
e|---------------------------------------------------------------------------|
B|---------------------------------------------------------------------------|
G|---------------------------9----7------------------------------------------|
D|----------5----------------9----7------------------------------------------| X4
A|----------5----------------x----x------------------------------------------|
E|----------3----------------7----5------------------------------------------|

 Chorus
  Hand in hand, we would never       understand
e|---------------------------------------------------------------------------|
B|---------------------------------------------------------------------------|
G|--5------7-------------5------------------7--------------------------------|
D|--5------7-------------5------------------7--------------------------------| 
A|--x------x-------------7------------------x--------------------------------|
E|--3------5--------------------------------5--------------------------------|

 ..all  along  I was    always  Mr. Wrong 
e|---------------------------------------------------------------------------|
B|---------------------------------------------------------------------------|
G|--5------7-------------5---------------------------------------------------|
D|--5------7-------------5--------------9------------------------------------| 
A|--x------x-------------7--------------9------------------------------------|
E|--3------5----------------------------7------------------------------------|

But I want you to believe me it's alright
e|---------------------------------------------------------------------------|
B|---------------------------------------------------------------------------|
G|--5------7----------5------------------------------------------------------|
D|--5------7----------5----------------7-------------------------------------| 
A|--x------x----------7----------------7-------------------------------------|
E|--3------5---------------------------5-------------------------------------|

 I'm leaving it's alright
e|---------------------------------------------------------------------------|
B|---------------------------------------------------------------------------|
G|-----5-------------7-------------------------------------------------------|
D|-----5-------------7-------------------------------------------------------|
A|-----x-------------x-------------------------------------------------------|
E|-----3-------------5-------------------------------------------------------|

Verse, Chorus

Pre-solo section 
   Just can't really see myself
e|---------------------------------------------------------------------------|
B|----------------------------------------------------2----------------------|
G|------------------------7---------------------------2----------------------|
D|--7---------------------7-----------------2---------2----------------------| X2
A|--7---------------------x-----------------2--------------------------------|
E|--5---------------------5-----------------0--------------------------------|

   Even though it's dark..   growing into something... living on recycled air
e|---------------------------------------------------------------------------|
B|---------------------------------------------------------------------------|
G|--5-----------------7----------------------------------5----------7--------|
D|--5-----------------7----------5-----------7-----------5----------7--------|
A|--x-----------------x----------5-----------7-----------x----------x--------|
E|--3-----------------5----------3-----------5-----------3----------5--------|


Solo - All sounds pretty accurate
e|---------------------------------------------------------------------------|
B|---------------------------------------------------------------------------|
G|--------------------------7-9-------7-9--------------------7-----------7-9-|
D|-7-9~-9-9-9-9-9-9-7-5-5-5-----9-9-9-----9-7-7-7---9~-9-7-9---9-7-5-5-5-----|
A|---------------------------------------------------------------------------|
E|---------------------------------------------------------------------------|

e|---------------------------------------------------------------------------|
B|---------------------------------------------------------------------------|
G|-------7-9--------------------7-----------7-9-------9-11-11b12-11-11-11----|
D|-9-9-9-----9-7-7-7---9~-9-7-9---9-7-5-5-5-----9-9-9------------------------|
A|---------------------------------------------------------------------------|
E|---------------------------------------------------------------------------|

e|---------------------------------------------------------------------------|
B|---------------------------------------------------------------------------|
G|----------7-----------7-9--------------------------------------------------|
D|-9~-9-7-9---9-7-5-5-5-----9-9-9-7-7-7-9-7-5--------------------------------|
A|---------------------------------------------------------------------------|
E|---------------------------------------------------------------------------|

Then back to the chorus, and the outro is the same as the the intro. Welcome to criticisms/
improvements :) 

************************************

| /   slide up
| \   slide down
| h   hammer-on
| p   pull-off
| ~   vibrato
| +   harmonic
| x   Mute note
| b   Bend
| pb  Pre-bend
| br  Bend release
| pbr Pre-bend release
| brb Bend release bend

************************************
                                        
                                            
                                            
                                        
                                                                
                        
                        
                        
                                                        
    /* Ultimate-Guitar - Tab Pages */
    (function() {
        var opts = {
            artist: "The Cribs",
            song: "Mr Wrong",
            genre: "",
            adunit_id: 39382312,
            div_id: "cf_async_" + Math.floor((Math.random() * 999999999)),
            hostname: "srv.tonefuse.com"
        };
        document.write('');var c=function(){cf.showAsyncAd(opts)};if(window.cf)c();else{cf_async=!0;var r=document.createElement("script"),s=document.getElementsByTagName("script")[0];r.async=!0;r.src="//"+opts.hostname+"/showads/showad.js";r.readyState?r.onreadystatechange=function(){if("loaded"==r.readyState||"complete"==r.readyState)r.onreadystatechange=null,c()}:r.onload=c;s.parentNode.insertBefore(r,s)};
    })();
    
    
                        
                                                    
                                                                    
                                    
                                     var amznTargs='';
                                     var key = 'amznslots';
                                     if ("amznads" in window) var values = amznads.getTokens('3x2'); //comma separated tokens
                                     if (values.length > 0) amznTargs='&'+key+'='+values;
                                    document.write('');
                                    
                                    
                                                            
                                                

                    

                
                
                
                    
                        comments
                    
                                            
                            We did not receive enough feedback on this tab! Please rate:
                        
                                        
                        print report bad tab
                    
                                            
                                                            1
                                                            2
                                                            3
                                                            4
                                                            5
                                                    
                                    
                
                                    
                
                    
                             
    
        4 comments total. Showing first comments. 
            
    
                                
                
                
                    
                        
                            
                                
                                    
                                    
                                
                                                                    +1
                                                            
                            reply
                            
                            
                        
                        Merrick8432 wrote on May 30 2015, 06:21 am  
                    
                    
                        Thanks for posting man, there may be a couple of corrections to be made but its pretty much there. Also used this tab as a guitar cover so thanks again. https://www.youtube.com/watch?v=cZhkUi1H4WU
                    
                
            
                                
                
                
                    
                        
                            
                                
                                    
                                    
                                
                                                                    +1
                                                            
                            reply
                            
                            
                        
                        the_watch_trick wrote on May 30 2015, 01:01 pm  
                    
                    
                        thanks a lot man, made some changes to coincide with your cover (still not sure if i've got that 3rd chord in the chorus right?), but let us know if you have any corrections/improvements. Been loving yr cribs covers so keep at 'em!
                    
                
            
                                
                
                
                    
                        
                            
                                
                                    
                                    
                                
                                                                    +1
                                                            
                            reply
                            
                            
                        
                        Merrick8432 wrote on May 31 2015, 11:15 am  
                    
                    
                        Not sure how to do these corrections but here goes. I think the last chord of the 3rd chorus line under "believe me its alright" is 577--- rather than 5x77--, and the last thing, in the 'pre solo section' I'd have 022--- and --222-
Добавлено: 15.11.2015
Другие материалы по этой песне:
  • Аккорды и текст

Страница создана 15.11.2015
http://primanota.ru/the-cribs/mr-wrong-chords.htm
Привет, Гость.
Предлагаем пройти революционный курс по гитаре.
Подарок от PrimaNota.Ru, забирай!