PrimaNota.ru - самый крупный в мире бесплатный архив песенных текстов, аккордов, табулатур и нот


The Cribs - Martell Minitures - таба, видео

Регистрация Запомнить меня
Войти через:  Facebook Google Twitter Vk Yandex Mail.ru

The Cribs - Martell Minitures - таба, видео

Печатать
Просмотров: 63
Martell Minitures

Intro x 2 (which doubles as chorus)

e|----------------------------------------------------------|
B|----------------------------------------------------------|
G|---9-9-9-9-9-9-9--8-8---6-6-6-6-6-6-6---8-8---------------|
D|---x-x-x-x-x-x-x--x-x---x-x-x-x-x-x-x---x-x---------------|
A|---7-7-7-7-7-7-7--6-6---4-4-4-4-4-4-4---6-6---------------|
E|----------------------------------------------------------|

Chords used for the verse played as below

    A    G#   C#m     B
e|--5----4-----4----2--------------------------------------------|
B|--5----4-----5----4--------------------------------------------|
G|--6----5-----6----4--------------------------------------------|
D|--7- --6-----6----4--------------------------------------------|
A|--7----6-----4----2--------------------------------------------|
E|--5----4-------------------------------------------------------|


A                G#
How hard can it be
           C#m
To get a slap on the back from a room full of morons?
A                G#
So you hate my sunglasses?
    C#m
Well your precious Leeds is dead Just so long as you know
A                G#
The clean and the green
C#m                        *(see below)
Make up you're music scene
A                G#                               C#m
And shy away from the words that they've written for me Can't you see
B
That


* Little guitar line just after - "Make up you're music scene"
e|----------------------------------------------|
B|----------------------------------------------|
G|----------------------------------------------|
D|-------2----2--4------------------------------|
A|---4-4----4-----------------------------------|
E|----------------------------------------------|


Chorus x 2  "Someones got their eye on you now"

e|----------------------------------------------------------|
B|----------------------------------------------------------|
G|---9-9-9-9-9-9-9--8-8---6-6-6-6-6-6-6---8-8---------------|
D|---x-x-x-x-x-x-x--x-x---x-x-x-x-x-x-x---x-x---------------|
A|---7-7-7-7-7-7-7--6-6---4-4-4-4-4-4-4---6-6---------------|
E|----------------------------------------------------------|


Chorus (slight variation) x 2 "La la la la can you hear me"
e|-----9---9---9--------------------------------------------------|
B|-----9---9---9--------------------------------------------------|
G|---9---9---9---9---8-8---6-6-6-6-6-6-6---8-8--------------------|
D|---x---x---x---x---x-x---x-x-x-x-x-x-x---x-x--------------------|
A|---7---7---7---7---6-6---4-4-4-4-4-4-4---6-6--------------------|
E|----------------------------------------------------------------|

Second Verse


A                      G#
You should leave it to me
    C#m                      **(see below)
We cover insignificant miles for a miniature bottle
A                   G#
Do you know what I mean?
C#m
I don't think so But we go for a smoke in the Smoke
A                 C
And I like what I see
C#m                                               *(see below)
It's a vicious cycle but who cares when it's happening to me?
A         G#
It's obscene
C#m
Can't you see
B
That?


** little guitar line after "miles for a miniature bottle". Just take off your
little finger while playing C#m and move it to the 'e' string down from the 7th fret to 
the 6th fret (as tabbed below)

    C#m
e|--4-4-4-4-4--7-7-7--6-6-6----------------------------------|
B|--5-5-5-5-5--5-5-5--5-5-5----------------------------------|
G|--6-6-6-6-6--6-6-6--6-6-6----------------------------------|
D|--6-6-6-6-6--4-4-4--4-4-4----------------------------------|
A|--4-6-6-6-6--4-4-4--4-4-4----------------------------------|
E|-----------------------------------------------------------|

* Little guitar line just after "who cares when it's happening to me?"
e|----------------------------------------------|
B|----------------------------------------------|
G|----------------------------------------------|
D|-------2----2--4------------------------------|
A|---4-4----4-----------------------------------|
E|----------------------------------------------|

After this it goes back to the chorus played over and over.

Check out my Cribs guitar tab blog at http://thecribsguitartabs.blogspot.co.uk/
Добавлено: 02.07.2013
Другие материалы по этой песне:
  • Аккорды и текст

Страница создана 02.07.2013
http://primanota.ru/the-cribs/martell-minitures-chords.htm
Привет, Гость.
Предлагаем пройти революционный курс по гитаре.
Подарок от PrimaNota.Ru, забирай!