PrimaNota.ru - самый крупный в мире бесплатный архив песенных текстов, аккордов, табулатур и нот


The Cribs - Learning How To Fight - текст песни, бас-таба, видео

Регистрация Запомнить меня
Войти через:  Facebook Google Twitter Vk Yandex Mail.ru

The Cribs - Learning How To Fight - текст песни, бас-таба, видео

Печатать
Просмотров: 24
-------------------------------------------------------------------------------
                             Learning How To Fight- The Cribs
-------------------------------------------------------------------------------
WAKEFIELD FOREVER

 IT GOES CHORUS VERSE CHORUS ALL THE WAY THOUGH.
Chorus
G|-------------------------------------------------------------------------------|
D|-------------------------------------------------------------------------------|
A|0-0-0-0-0-0-0-0------------------------------------------------5-5-5-5-5-5-5-5-| x2
E|----------------4-4-4-4-4-4-4-4-2-2-2-2-2-2-2-2-0-0-0-0-0-0-0-0----------------|

G----------------------------------------------------------------------------|
D----------------------------------------------------------------------------|
A-7-7-7-7-7-7-7-7-0-0-0-0-0-0-0-0-0-0-0-0-0-0-0-0-0 -------------------------|
E----------------------------------------------------------------------------|
Verse
G|---------------------------------------------------------------------------|
D|---------------------------------------------------------------------------|
A|0-0-00--47-7-77--9-9-99---9-9-99-------------------------------------------|x2
E|------------------------9---------7-7-77--0-0-00--5-5-55--05-5-55----------|


| /  slide up
| \  slide down
| h  hammer-on
| p  pull-off
| ~  vibrato
| +  harmonic
| x  Mute note
===============================================================================
Добавлено: 11.03.2016
Другие материалы по этой песне:
  • Аккорды и текст

Страница создана 12.07.2012
http://primanota.ru/the-cribs/learning-how-to-fight-chords.htm
Привет, Гость.
Предлагаем пройти революционный курс по гитаре.
Подарок от PrimaNota.Ru, забирай!