PrimaNota.ru - самый крупный в мире бесплатный архив песенных текстов, аккордов, табулатур и нот


The Cribs - It Happened So Fast - таба, видео

Регистрация Запомнить меня
Войти через:  Facebook Google Twitter Vk Yandex Mail.ru

The Cribs - It Happened So Fast - таба, видео

Печатать
Просмотров: 100
intro/verse


|--9--9-9-9--11--11-11—11--12--12-12-12--11-11-11-11-----------|
|--9--9-9-9--9---9--9--9---10--10-10-10--9--9--9--9------------|
|--------------------------------------------------------------|
|--------------------------------------------------------------|
|--------------------------------------------------------------|
|--------------------------------------------------------------|

pre chorus
   
   e     c#m   a     b
|--7----4----5----7--|
|--9----5----5----7--|
|--9----6----6----8--|
|--9----6----7----9--|
|--7----4----7----9--|
|--x----x----5----7--|


e c#m a b   X 2

chorus

    e    g#m   c#m   a    b
|--12----11----9-----5----7--|
|--12----12----9-----5----7--|
|--13----13----9-----6----8--|
|--14----13----11----7----9--|
|--14----11----11----7----9--|
|--12----x ----9-----5----7--|




e               g#m
you always said once was not enough

c#m
every time we go for a second try

a     b         a           b
now i know that it happened so fast x2


repeat
Добавлено: 09.06.2012
Другие материалы по этой песне:
  • Аккорды и текст

Страница создана 09.06.2012
http://primanota.ru/the-cribs/it-happened-so-fast-chords.htm
Привет, Гость.
Предлагаем пройти революционный курс по гитаре.
Подарок от PrimaNota.Ru, забирай!