PrimaNota.ru - самый крупный в мире бесплатный архив песенных текстов, аккордов, табулатур и нот


The Cribs - I See Your Pictures Every Day - таба, видео

Регистрация Запомнить меня
Войти через:  Facebook Google Twitter Vk Yandex Mail.ru

The Cribs - I See Your Pictures Every Day - таба, видео

Печатать
Просмотров: 66
-------------------------------------------------------------------------------
               I See Your Pictures Every Day - The Cribs
-------------------------------------------------------------------------------
Tabbed by: Rory H
E-mail: rdeh10@googlemail.com

Tuning: EADGBe

A B-Side from the Burning For No One single. I think most of what I have tabbed on the D is actually
played on the A after watching the only live video I could find, but this still sounds accurate to me :)
If there are any improvements or corrections, please do not hesitate to leave them below, or to email me!

INTRO:
e|---------5-------|---------7-------|---------5-------|---------5-------|
B|-----8-----8---8-|-----5-----5---5-|-----5-----5---5-|-----5-----5---5-|
G|---7---7-----7---|---7-------------|---5-------------|---5-------------|
D|-5---------------|-6-----6-----6---|-7-----7-----7---|-8-----8-----8---|
A|-----------------|-----------------|-----------------|-----------------|
E|-----------------|-----------------|-----------------|-----------------|

e|---------5-------|---------7-------|---------5-------|---------5-----|
B|-----8-----8---8-|-----5-----5---5-|-----5-----5---5-|-----5-----5---|
G|---7---7-----7---|---7-------------|---5-------------|---5-----------|
D|-5---------------|-6-----6-----6---|-7-----7-----7---|-8-----8-----8-|
A|-----------------|-----------------|-----------------|---------------|
E|-----------------|-----------------|-----------------|---------------|

VERSE 1:
e|-----------------|----------------|------------|--------------|-------------|------------------|
B|-----------------|----------------|------------|--------------|-------------|------------------|
G|-----------------|----------------|------------|--------------|-----------5~|-----5-5-5-5/7--5-|
D|-/7--7-7-7-7-7-7-|-7-7-7-5--3-3-0-|-7-7-7-5--3-|--2--2---3--5-|--5-/7-------|------------------|
A|-----------------|--------------0-|------------|-------0------|-------3-3---|-3-3--------------|
E|-----------------|----------------|------------|--------------|-------------|------------------|

e|--------------|------------------|
B|--------------|------------------|
G|------5---5---|------------------|
D|-3--3---3---3-|--2--2-0-3--5-5-0-|
A|--------------|------------------|
E|--------------|------------------|

CHORUS:
e|-----------------|--------------|-----------------|--------------|-----------------|--------------|
B|-----1-----1-----|-----1--------|-----1-----1-----|-----1--------|-----------------|--------------|
G|-----------------|---------2--0-|-----------------|---------2--0-|(4-4-4-4-4-4-4-4)|-3-3-3-3--5-5-|
D|-2h3---2h3---2h3-|-2h3---0------|-2h3---2h3---2h3-|-2h3---0------|-3-3-3-3-3-3-3-3-|-3-3-3-3--5-5-|
A|-----------------|--------------|-----------------|--------------|-5-5-5-5-5-5-5-5-|-1-1-1-1--3-3-|
E|-----------------|--------------|-----------------|--------------|-----------------|--------------|

e|-----------------|--------------|-----------------|--------------|-----------------|----------------|
B|-----------------|--------------|-----------------|--------------|-----------------|----------------|
G|-----------------|-3-3-3-3--5-5-|-----------------|-3-3-3-3--5-5-|-----------------|----------------|
D|-3-3-3-3-3-3-3-3-|-3-3-3-3--5-5-|-3-3-3-3-3-3-3-3-|-3-3-3-3--5-5-|-3-3-3-3-3-3-3-3-|----------------|
A|-3-3-3-3-3-3-3-3-|-1-1-1-1--3-3-|-5-5-5-5-5-5-5-5-|-1-1-1-1--3-3-|-3-3-3-3-3-3-3-3-|-3-3-3-3-3-3-3--|
E|-1-1-1-1-1-1-1-1-|--------------|-----------------|--------------|-1-1-1-1-1-1-1-1-|-1-1-1-1-1-1-1--|
                                                                                     |------P.M-------|

e|---------------|-----------------|---------------|------------------|---------------|----------------|
B|---------------|-----------------|---------------|------------------|---------------|----------------|
G|-5-0-2-0-3-0-5-|-----------------|-5-0-2-0-3-0-5-|------------------|-5-0-2-0-3-0-5-|----------------|
D|---------------|-3--3-0-3--3-3-0-|---------------|-5/7-5-0-5--5-5-0-|---------------|-3--3-0-3--3-3\-|
A|---------------|------0----------|---------------|------------------|---------------|----------------|
E|---------------|-----------------|---------------|------------------|---------------|----------------|

e|---------------|------------------|---------------|-----------------|---------------|------------------|
B|---------------|------------------|---------------|-----------------|---------------|------------------|
G|---------------|------------------|-5-0-2-0-3-0-5-|-----------------|-5-0-2-0-3-0-5-|------------------|
D|-0-0-0-0-0-0-0-|--2--2-2-3--3-3-0-|---------------|-3--3-0-3--3-3-0-|---------------|-5/7-5-0-5--5-5-0-|
A|---------------|------------------|---------------|------0----------|---------------|------------------|
E|---------------|------------------|---------------|-----------------|---------------|------------------|

e|---------------|------------------|---------------|---------------|-------5-------|-------5--4-|
B|---------------|------------------|---------------|---------------|-----8---8---8-|-----5------|
G|-5-0-2-0-3-0-5-|------------------|---------------|---------------|---7-----------|---5--------|
D|---------------|-3--3-0-3-3-3-3-3-|-0-0-0-0-0-0-0-|-2--2-2-2--2-2/|/5---------5---|-8----------|
A|---------------|------------------|---------------|---------------|---------------|------------|
E|---------------|------------------|---------------|---------------|---------------|------------|

VERSE:
e|---------------|-----------------|--------------|----------------|--------------|-------------|
B|---------------|-----------------|--------------|----------------|--------------|-------------|
G|---------------|-----------------|--------------|--------7-5-5---|--------------|-------------|
D|-/7--7-7-7-7-7-|0-7-7-7-8--10-10-|0-7-7-7-8--10-|-7-\5-5-------0-|-7-7-7-7--7-7-|7--7-7-5--3--|
A|---------------|-----------------|--------------|----------------|--------------|-------------|
E|---------------|-----------------|--------------|----------------|--------------|-------------|

e|--------------|----------------|
B|--------------|----------------|
G|------2---2-3-|----------------|
D|-0--0---0-----|----------------|
A|--------------|3--3-0-3--3-3-0-|
E|--------------|----------------|

CHORUS/OUTRO:
e|-----------------|--------------|-----------------|--------------|-----------------|--------------|
B|-----1-----1-----|-----1--------|-----1-----1-----|-----1--------|-----------------|--------------|
G|-----------------|---------2--0-|-----------------|---------2--0-|-----------------|-3-3-3-3--5-5-|
D|-2h3---2h3---2h3-|-2h3---0------|-2h3---2h3---2h3-|-2h3---0------|-3-3-3-3-3-3-3-3-|-3-3-3-3--5-5-|
A|-----------------|--------------|-----------------|--------------|-5-5-5-5-5-5-5-5-|-1-1-1-1--3-3-|
E|-----------------|--------------|-----------------|--------------|-----------------|--------------|

e|-----------------|--------------|-----------------|--------------|-----------------|----------------------|
B|-----------------|--------------|-----------------|--------------|-----------------|----------------------|
G|-----------------|-3-3-3-3--5-5-|-----------------|-3-3-3-3--5-5-|-----------------|----------------------|
D|-3-3-3-3-3-3-3-3-|-3-3-3-3--5-5-|-3-3-3-3-3-3-3-3-|-3-3-3-3--5-5-|-3-3-3-3-3-3-3-3-|----------------------|
A|-3-3-3-3-3-3-3-3-|-1-1-1-1--3-3-|-5-5-5-5-5-5-5-5-|-1-1-1-1--3-3-|-3-3-3-3-3-3-3-3-|----------------------|
E|-1-1-1-1-1-1-1-1-|--------------|-----------------|--------------|-1-1-1-1-1-1-1-1-|-/13-13-13-13-13-13-x-|
                                                                                     
e|---------------|-----------------|---------------|------------------|---------------|----------------|
B|---------------|-----------------|---------------|------------------|---------------|----------------|
G|-5-0-2-0-3-0-5-|-----------------|-5-0-2-0-3-0-5-|------------------|-6-0-2-0-3-0-5-|----------------|
D|---------------|-3--3-0-3--3-3-0-|---------------|-5/7-5-0-5--5-5-0-|---------------|-3--3-0-3--3-3\-|
A|---------------|-----(0)---------|---------------|------------------|---------------|----------------|
E|---------------|-----------------|---------------|------------------|---------------|----------------|

e|---------------|------------------|---------------|-----------------|---------------|------------------|
B|---------------|------------------|---------------|-----------------|---------------|------------------|
G|---------------|------------------|-5-0-2-0-3-0-5-|-----------------|-5-0-2-0-3-0-5-|------------------|
D|-0-0-0-0-0-0-0-|--2--2-2-3--3-3-0-|---------------|-3--3-0-3--3-3-0-|---------------|-5/7-5-0-5--5-5-0-|
A|---------------|------------------|---------------|-----------------|---------------|------------------|
E|---------------|------------------|---------------|-----------------|---------------|------------------|

e|---------------|------------------|---------------|---------------|---------------|---------------|
B|---------------|------------------|---------------|---------------|---------------|---------------|
G|-6-0-2-0-3-0-5-|------------------|---------------|---------------|---------------|---------------|
D|---------------|-3--3-0-3-3-3-3-3-|-0-0-0-0-0-0-0-|-2--2-2-3--3-3-|---------------|---------------|
A|---------------|------------------|---------------|---------------|-3-3-3-3-3-3-3-|-5--5-5-7--7-7-|
E|---------------|------------------|---------------|---------------|---------------|---------------|


e|-------5-------|-------5--4---|-----------------|
B|-----8---8---8-|-----5--------|(4--5--6--8--10)-|
G|---7-----------|---5--------5-|-2---------------|
D|-5---------5---|-8------------|-----------------|
A|---------------|--------------|-----------------|
E|---------------|--------------|-----------------|

************************************

| /   slide up
| \   slide down
| h   hammer-on
| p   pull-off
| ~   vibrato
| +   harmonic
| x   Mute note
| b   Bend
| pb  Pre-bend
| br  Bend release
| pbr Pre-bend release
| brb Bend release bend

************************************
Добавлено: 11.03.2016
Другие материалы по этой песне:
  • Аккорды и текст

Страница создана 11.03.2016
http://primanota.ru/the-cribs/i-see-your-pictures-every-day-chords.htm
Привет, Гость.
Предлагаем пройти революционный курс по гитаре.
Подарок от PrimaNota.Ru, забирай!