PrimaNota.ru - самый крупный в мире бесплатный архив песенных текстов, аккордов, табулатур и нот


The Cribs - Hey Scenesters - текст песни, таба, бас-таба, видео

Регистрация Запомнить меня
Войти через:  Facebook Google Twitter Vk Yandex Mail.ru

The Cribs - Hey Scenesters - текст песни, таба, бас-таба, видео

Печатать
Просмотров: 176
-------------------------------------------------------------------------------
                             HEY SCENESTERS! - The Cribs
-------------------------------------------------------------------------------
Tabbed by: Bradders

Tuning: Standard

Intro

e|---5-7--------------5-7--------------5-7--------------------5-7--------------------|
B|-0-----3-5-7-0----0-----3-5-7-0----0-----3-5-7-0----0-5-7-0-----5-7----------------|
G|-----------------------------------------------------------------------------------|
D|-----------------------------------------------------------------------------------|
A|-----------------------------------------------------------------------------------|
E|-----------------------------------------------------------------------------------|

Chorus

e|7--7--7-7--7-7--7--7-7--7--7--7--7-7--7-7--7--7-7--7-7--7--7-7--7-7--7--7-7--7-----|
B|7--7--7-7--7-7--7--7-7--7--7--7--7-7--7-7--7--7-7--7-7--7--7-7--7-7--7--7-7--7-----|
G|7--7--7-7--7-7--7--7-7--7--7--7--7-7--7-7--7--7-7--7-7--7--7-7--7-7--7--7-7--7-----|
D|7--7--7-7--7-7--7--7-7--7--7--7--7-7--7-7--7--7-7--7-7--7--7-7--7-7--7--7-7--7-----|
A|5--5--5-5--5-5--5--5-5--5--x--x--x-x--x-x--x--x-x--x-5--5--5-5--x-x--x--x-x--x-----|
E|---------------------------7--7--7-7--7-7--7--7-7--7------------7-7--7--7-7--7-----|

e|---5-7--------------5-7--------------5-7--------------------5-7--------------------|
B|-0-----3-5-7-0----0-----3-5-7-0----0-----3-5-7-0----0-5-7-0-----5-7----------------|
G|-----------------------------------------------------------------------------------|
D|-----------------------------------------------------------------------------------|
A|-----------------------------------------------------------------------------------|
E|-----------------------------------------------------------------------------------|

e|-7--7-7--7-7--7--7-7--7--7--7--7-7--7-7--7--7-7--7-7--7--7-7--7-7--7--7-7--7-------|
B|-7--7-7--7-7--7--7-7--7--7--7--7-7--7-7--7--7-7--7-7--7--7-7--7-7--7--7-7--7-------|
G|-7--7-7--7-7--7--7-7--7--7--7--7-7--7-7--7--7-7--7-7--7--7-7--7-7--7--7-7--7-------|
D|-7--7-7--7-7--7--7-7--7--7--7--7-7--7-7--7--7-7--7-7--7--7-7--7-7--7--7-7--7-------|
A|-5--5-5--5-5--5--5-5--5--x--x--x-x--x-x--x--x-x--x-5--5--5-5--x-x--x--x-x--x-------|
E|-------------------------7--7--7-7--7-7--7--7-7--7------------7-7--7--7-7--7-------|

e|---5-7--------------5-7--------------5-7--------------------5-7--------------------|
B|-0-----3-5-7-0----0-----3-5-7-0----0-----3-5-7-0----0-5-7-0-----5-7----------------|
G|-----------------------------------------------------------------------------------|
D|-----------------------------------------------------------------------------------|
A|-----------------------------------------------------------------------------------|
E|-----------------------------------------------------------------------------------|

1st Verse

e|-7--7--7-7-7-7-7--7--7-7-7-7-7--7--7--7-7-7-7-7--7--7-7-7-7-7-7--------------------|
B|-7--7--7-7-7-7-7--7--7-7-7-7-7--7--7--7-7-7-7-7--7--7-7-7-7-7-7--------------------|
G|-7--7--7-7-7-7-7--7--7-7-7-7-7--7--7--7-7-7-7-7--7--7-7-7-7-7-7--------------------|x2
D|-7--7--7-7-7-7-7--7--7-7-7-7-7--7--7--7-7-7-7-7--7--7-7-7-7-7-7--------------------|
A|-x--x--x-x-x-x-x--x--x-x-x-x-x--x--x--x-x-x-x-x--x--x-x-x-x-x-x--------------------|
E|-7--7--7-7-7-7-7--7--7-7-7-7-7--7--7--7-7-7-7-7--7--7-7-7-7-7-7--------------------|

e|-7-7------------7-5-5-5-5--|----7-7-----------7-5----------------------------------|
B|-----7------7--------------|--------7------7------7-5------------------------------|
G|-------7--6----------------|x3--------7--6-------------7---------------------------|
D|---------------------------|-------------------------------------------------------|
A|---------------------------|-------------------------------------------------------|
E|---------------------------|-------------------------------------------------------|

e|-7-7------------7-5-5-5-5--|----7-7-------7-7--7-7---------------------------------|
B|-----7------7--------------|--------7-----7-7--7-7---------------------------------|
G|-------7--6----------------|x3--------7---7-7--7-7---------------------------------|
D|---------------------------|--------------7-7--7-7---------------------------------|
A|---------------------------|--------------5-5--5-5---------------------------------|
E|---------------------------|-------------------------------------------------------|


Outro

e|-7-7-7--7-7-7--7-7-7--7-7-7--2-2-2--2-2-2--2-2-2--1-1-1-1-1------------------------|
B|-7-7-7--7-7-7--7-7-7--7-7-7--2-2-2--2-2-2--2-2-2--1-1-1-1-1------------------------|
G|-7-7-7--7-7-7--7-7-7--7-7-7--2-2-2--2-2-2--2-2-2--1-1-1-1-1------------------------|
D|-7-7-7--7-7-7--7-7-7--7-7-7--2-2-2--2-2-2--2-2-2--1-1-1-1-1------------------------|
A|-x-x-x--x-x-x--x-x-x--x-x-x--x-x-x--x-x-x--x-x-x--x-x-x-x-x------------------------|
E|-7-7-7--7-7-7--7-7-7--7-7-7--2-2-2--2-2-2--2-2-2--1-1-1-1-1------------------------|


Brilliant band, if you like this song I strongly recomend buying the album, it honestly 
great.

 x = Mute note
===============================================================================
Добавлено: 28.06.2012
Другие материалы по этой песне:

Страница создана 21.03.2012
http://primanota.ru/the-cribs/hey-scenesters-chords.htm
Привет, Гость.
Предлагаем пройти революционный курс по гитаре.
Подарок от PrimaNota.Ru, забирай!