PrimaNota.ru - самый крупный в мире бесплатный архив песенных текстов, аккордов, табулатур и нот


The Cribs - Different Angle - таба, видео

Регистрация Запомнить меня
Войти через:  Facebook Google Twitter Vk Yandex Mail.ru

The Cribs - Different Angle - таба, видео

Печатать
Просмотров: 67
Уроки эстрадного вокала в Санкт-Петербурге
-------------------------------------------------------------------------------
                             DIFFERENT ANGLE - The Cribs
-------------------------------------------------------------------------------
Tabbed by: alex9999999999
E-mail: -

Tuning: Standard

Intro / Chorus:(0:00)

e|------8----8-----5--------8--------8------------5---------8----------------|
B|---10---10----8-----8--6-----6--5-----5------6----6-------8----------------|
G|------------------------------------------7----------7---------------------|
D|---------------------------------------------------------------------------|
A|---------------------------------------------------------------------------|
E|---------------------------------------------------------------------------|

e|--------------5------------------------------------------------------------|
B|--------8-------8----------------------------------------------------------|
G|-----5-----5------5--------------------------------------------------------|
D|---------------------------------------------------------------------------|
A|---------------------------------------------------------------------------|    x4
E|---------------------------------------------------------------------------|

Verse: (0:31) "So just gimme a chance"

e|------6--5--6-------------------------1---3---3---5------------------------|
B|------6--6--6--1-1--3--3--5--5--1-----1---3---3---6----5--6--5--6--5-------|
G|---------------------------------------------------------------------------|    x2
D|---------------------------------------------------------------------------|  
A|---------------------------------------------------------------------------|
E|---------------------------------------------------------------------------|

Bridge: (0:47) "The scars are just a kiss.."

e|-------5--5--5--5--5--5--5--5---3--3--3--3--3--3--3--3---------------------|
B|-------6--6--6--6--6--6--6--6---5--5--5--5--5--5--5--5---------------------|
G|---------------------------------------------------------------------------|    x2
D|---------------------------------------------------------------------------|
A|---------------------------------------------------------------------------|
E|---------------------------------------------------------------------------|

(0:55) "If only you could understand me"

e|-----6--6--6--6--5--5--5--3--3--3--5--3------------------------------------|
B|-----6--6--6--6--6--6--6--5--5--5--5--5---6--------------------------------|
G|------------------------------------------5--------------------------------|
D|---------------------------------------------------------------------------|
A|---------------------------------------------------------------------------|
E|---------------------------------------------------------------------------|



REPEAT X1



Bridge 2: (2:27) "It's all the sutures..."?

e|---------------------------------------------------------------------------|
B|---------------------------------------------------------------------------|
G|-----5--5--5--5--6--6--6--6--7--7--7--7--2--2--2--2------------------------|
D|-----5--5--5--5--6--6--6--6--7--7--7--7--2--2--2--2------------------------|
A|---------------------------------------------------------------------------|
E|---------------------------------------------------------------------------|

(2:50) 

e|----8--8--8--8----5--5--3---8--8--8--8----5--5--3--------------------------|
B|----8--8--8--8----5--5--3---8--8--8--8----5--5--3--------------------------|
G|---------------------------------------------------------------------------|
D|---------------------------------------------------------------------------|
A|---------------------------------------------------------------------------|
E|---------------------------------------------------------------------------|

Chorus x1


Outro riff

e|------------5--------------------------------------------------------------|
B|---------8-----8-----------------------------------------------------------|
G|------5-----------6--------------------------------------------------------|
D|---------------------------------------------------------------------------|
A|---------------------------------------------------------------------------|
E|---------------------------------------------------------------------------|

************************************

| /   slide up
| \   slide down
| h   hammer-on
| p   pull-off
| ~   vibrato
| +   harmonic
| x   Mute note
| b   Bend
| pb  Pre-bend
| br  Bend release
| pbr Pre-bend release
| brb Bend release bend

************************************
Добавлено: 15.11.2015
Другие материалы по этой песне:
  • Аккорды и текст

Страница создана 15.11.2015
http://primanota.ru/the-cribs/different-angle-chords.htm
Привет, Гость.
Предлагаем пройти революционный курс по гитаре.
Подарок от PrimaNota.Ru, забирай!