PrimaNota.ru - самый крупный в мире бесплатный архив песенных текстов, аккордов, табулатур и нот


The Cribs - City Storms - таба, видео

Регистрация Запомнить меня
Войти через:  Facebook Google Twitter Vk Yandex Mail.ru

The Cribs - City Storms - таба, видео

Печатать
Просмотров: 31
-------------------------------------------------------------------------------
                             City Storms - The Cribs
-------------------------------------------------------------------------------
Tabbed by: Rory H
E-mail: rdeh10@googlemail.com

Tuning: EADGBe

7th song from the album 'For All My Sisters'. The timing isn't too easy to tab, but I've done what I
can! Also, the lads like to hide notes here and there so sorry that I couldn't quite get it perfect ;)
Any improvements or corrections, be sure to let me know below or by email :)

Just want to note that in the chorus/intro sections the 12th on high e is sometimes audible, just in
case you want to play that too :) Also there are muted notes that I don't think I've included.

Intro:
e|----------------------------------------------------------12--10--10-10-|
B|-12-12-10-x-12-x-x-x-12--10--12--12-12-x-12-12-10-----------------------|
G|-12-12-12-x-12-x-x-x-12--12--12--12-12-x-12-12----9--9-9-9--------------|
D|------------------------------------------------------------------------|
A|------------------------------------------------------------------------|
E|------------------------------------------------------------------------|

e|---------------------------------------------------------------------|
B|-12-12-10-x-12----12--10--12-x-10-0-10-12----------------------------|
G|-12-12-12-x-12----12--12--12-x---------------------------------------|
D|------------------------------------------12--12-12-0-9-9-9-0-7--5-5-|
A|---------------------------------------------------------------------|
E|---------------------------------------------------------------------|

e|----------------------------------------------------------12--10--10-10-|
B|-12-12-10-x-12-x-x-x-12--10--12--12-12-x-12-12-10-----------------------|
G|-12-12-12-x-12-x-x-x-12--12--12--12-12-x-12-12----9--9-9-9--------------|
D|------------------------------------------------------------------------|
A|------------------------------------------------------------------------|
E|------------------------------------------------------------------------|

e|-----------------------------------|
B|-12-12-10--12--12-12-12--12--12-12-|
G|-12-12-12--12--12-12-12--12--12-12-|
D|-----------------------------------|
A|-----------------------------------|
E|-----------------------------------|

Verse:
e|---------------------------------------------------------------------------------|
B|---------------------------------------------------------------------------------|
G|-----7-----7--------------4-----4--------------4-----4---2----0-2-4-5-4--2----4/-|
D|-7-9---7-9---7\5-5----4-5---4-5---4\2-2----0-2---0-2---0-------------------------|
A|---------------------------------------------------------------------------------|
E|---------------------------------------------------------------------------------|

e|-----------------------------------------------------------|
B|-----------------------------------------------------------|
G|-----7-----7--------------4-----4--------------4-----4---2-|
D|-7-9---7-9---7\5-5----4-5---4-5---4\2-2----0-2---0-2---0---|
A|-----------------------------------------------------------|
E|-----------------------------------------------------------|

Pre-Chorus:
e|-----------------------------------------------------------|
B|-----------------------------------------------------------|
G|-4-4-4-4-4-4--5--5-5-5-5-5-----------------9-9-9-7-7-7-7-7-|
D|----------------------------4--4-4-4-4-4-4-----------------|
A|-----------------------------------------------------------|
E|-----------------------------------------------------------|

Chorus:
e|----------------------------------------------------------12--10--10-10-|
B|-12-12-10-x-12-x-x-x-12--10--12--12-12-x-12-12-10-----------------------|
G|-12-12-12-x-12-x-x-x-12--12--12--12-12-x-12-12----9--9-9-9--------------|
D|------------------------------------------------------------------------|
A|------------------------------------------------------------------------|
E|------------------------------------------------------------------------|

e|---------------------------------------------------------------------|
B|-12-12-10-x-12----12--10--12-x-10-0-10-12----------------------------|
G|-12-12-12-x-12----12--12--12-x---------------------------------------|
D|------------------------------------------12--12-12-0-9-9-9-0-7--5-5-|
A|---------------------------------------------------------------------|
E|---------------------------------------------------------------------|

e|----------------------------------------------------------12--10--10-10-|
B|-12-12-10-x-12-x-x-x-12--10--12--12-12-x-12-12-10-----------------------|
G|-12-12-12-x-12-x-x-x-12--12--12--12-12-x-12-12----9--9-9-9--------------|
D|------------------------------------------------------------------------|
A|------------------------------------------------------------------------|
E|------------------------------------------------------------------------|

e|-----------------------------------|
B|-12-12-10--12--12-12-12--12--12-12-|
G|-12-12-12--12--12-12-12--12--12-12-|
D|-----------------------------------|
A|-----------------------------------|
E|-----------------------------------|

Verse:
e|---------------------------------------------------------------------------------|
B|---------------------------------------------------------------------------------|
G|-----7-----7--------------4-----4--------------4-----4---2----0-2-4-5-4--2----4/-|
D|-7-9---7-9---7\5-5----4-5---4-5---4\2-2----0-2---0-2---0-------------------------|
A|---------------------------------------------------------------------------------|
E|---------------------------------------------------------------------------------|

e|-----------------------------------------------------------|
B|-----------------------------------------------------------|
G|-----7-----7--------------4-----4--------------4-----4---2-|
D|-7-9---7-9---7\5-5----4-5---4-5---4\2-2----0-2---0-2---0---|
A|-----------------------------------------------------------|
E|-----------------------------------------------------------|

Bridge:
e|-------------------------------------------------------------------------------------|
B|-------------------------------------------------------------------------------------|
G|-4--4-4-4-4-4--5--5-5-5-5-5-5-0-5--4--2--5--4--2--------------------7--5--4--7--5--4-|
D|--------------------------------------------------4--5--7--4--5--7-------------------|
A|-------------------------------------------------------------------------------------|
E|-------------------------------------------------------------------------------------|

e|----------------------------------------------|
B|----------------------------------------------|
G|----------4--5--7--4\2-2-22-2-0-----0---------|
D|-4--5--7------------------------2-4---2-0-0-0-|
A|----------------------------------------------|
E|----------------------------------------------|

Chorus:
e|----------------------------------------------------------12--10--10-10-|
B|-12-12-10-x-12-x-x-x-12--10--12--12-12-x-12-12-10-----------------------|
G|-12-12-12-x-12-x-x-x-12--12--12--12-12-x-12-12----9--9-9-9--------------|
D|------------------------------------------------------------------------|
A|------------------------------------------------------------------------|
E|------------------------------------------------------------------------|

e|------------------------------------------------------------------|
B|-12-12-10-x-12----12--10--12-10--10-12----------------------------|
G|-12-12-12-x-12----12--12--12--------------------------------------|
D|---------------------------------------12--12-12-0-9-9-9-0-7--5-5-|
A|------------------------------------------------------------------|
E|------------------------------------------------------------------|

e|---------------------------------------------------------------12--10--10-10/12-|
B|-12-12-10-x-12-x-x-x-12--10--12--12-12-x-12-12-10-------------------------------|
G|-12-12-12-x-12-x-x-x-12--12--12--12-12-x-12-12----12--12-12-12------------------|
D|--------------------------------------------------------------------------------|
A|--------------------------------------------------------------------------------|
E|--------------------------------------------------------------------------------|

e|----------------------------------------------------------12--10--10-10-|
B|-12-12-10-x-12-x-x-x-12--10--12--12-12-x-12-12-10-----------------------|
G|-12-12-12-x-12-x-x-x-12--12--12--12-12-x-12-12----9--9-9-9--------------|
D|------------------------------------------------------------------------|
A|------------------------------------------------------------------------|
E|------------------------------------------------------------------------|

e|--------------------------------------------------------10---10---10b12r10-|
B|-12-12-10-x-12-x-x-x-12--10--12--12-12-x-12-12-10-8-8-8----8----8----------|
G|-12-12-12-x-12-x-x-x-12--12--12--12-12-x-12-12-----------------------------|
D|---------------------------------------------------------------------------|
A|---------------------------------------------------------------------------|
E|---------------------------------------------------------------------------|

Break (Sorry, quite hard to get timings and intricacies perfect...):
e|-12-12-10--12--12-10-----12-12--12-12-14--x-x-x-12--14--12----------|
B|-12-12-12--12--12-12-12--12-12--12-12-12-12-x-x-12--12--12-12-12-12-|
G|--------------------------------------------------------------------|
D|--------------------------------------------------------------------|
A|--------------------------------------------------------------------|
E|--------------------------------------------------------------------|

e|-10-10-12--------------10-------10----------------------------------------|
B|-12-12-12--------------12-------12----------12-------12-------10-------10-|
G|----------12--12-12-12----12-12----12-12-12----12-12----11-11----11-11----|
D|--------------------------------------------------------------------------|
A|--------------------------------------------------------------------------|
E|--------------------------------------------------------------------------|

e|-12-12-10--12--12-10-----12----12--12-12-14-12-----12-14--------------10-10----8-8----10----------------|
B|-12-12-12--12--12-12-12--12-12-12--12-12-12-12--12-12-12-12-12-12--12-------12-----12----12-12-12-10-10-|
G|--------------------------------------------------------------------------------------------------------|
D|--------------------------------------------------------------------------------------------------------|
A|--------------------------------------------------------------------------------------------------------|
E|--------------------------------------------------------------------------------------------------------|

Final Chorus:
e|---------------------------------------------------------------12--10--10-10/12-|
B|-12-12-10-x-12-x-x-x-12--10--12--12-12-x-12-12-10-------------------------------|
G|-12-12-12-x-12-x-x-x-12--12--12--12-12-x-12-12----12--12-12-12------------------|
D|--------------------------------------------------------------------------------|
A|--------------------------------------------------------------------------------|
E|--------------------------------------------------------------------------------|

e|---------------------------------------------------------------------|
B|-12-12-10-x-12----12--10--12-x-10-0-10-12----------------------------|
G|-12-12-12-x-12----12--12--12-x---------------------------------------|
D|------------------------------------------12--12-12-0-9-9-9-0-7--5-5-|
A|---------------------------------------------------------------------|
E|---------------------------------------------------------------------|

e|----------------------------------------------------------12--10--10-10-12-|
B|-12-12-10-x-12-x-x-x-12--10--12--12-12-x-12-12-10--------------------------|
G|-12-12-12-x-12-x-x-x-12--12--12--12-12-x-12-12----9--9-9-9-----------------|
D|---------------------------------------------------------------------------| x2
A|---------------------------------------------------------------------------|
E|---------------------------------------------------------------------------|

e|--------------------------------------------------------10---10-----|
B|-12-12-10-x-12-x-x-x-12--10--12--12-12-x-12-12-10-8-8-8----8----8-8-|
G|-12-12-12-x-12-x-x-x-12--12--12--12-12-x-12-12----------------------|
D|--------------------------------------------------------------------|
A|--------------------------------------------------------------------|
E|--------------------------------------------------------------------|

And just mess with this until the end pretty much :)

************************************

| /   slide up
| \   slide down
| h   hammer-on
| p   pull-off
| ~   vibrato
| +   harmonic
| x   Mute note
| b   Bend
| pb  Pre-bend
| br  Bend release
| pbr Pre-bend release
| brb Bend release bend

************************************
Добавлено: 11.03.2016
Другие материалы по этой песне:
  • Аккорды и текст

Страница создана 11.03.2016
http://primanota.ru/the-cribs/city-storms-chords.htm
Привет, Гость.
Предлагаем пройти революционный курс по гитаре.
Подарок от PrimaNota.Ru, забирай!