PrimaNota.ru - самый крупный в мире бесплатный архив песенных текстов, аккордов, табулатур и нот


The Cribs - Cheat On Me - таба, видео

Регистрация Запомнить меня
Войти через:  Facebook Google Twitter Vk Yandex Mail.ru

The Cribs - Cheat On Me - таба, видео

Печатать
Просмотров: 129
Brand new song from The Cribs this time with Johnny Marr. It's pretty damn amazing, here
is.

Key

b = Bend
h = Hammer On
p = Pull Off
~ = Vibrato
>>> = Slide
(?) = Optional/Secondary note

Note: I didn't include every single guitar fill because that would take forever, also it sounds
improvised for some fills. If you listen to the song it's fairly obvious given the chord 
I also know that they use a capo, but it isn't impossible to play it without. They use 
capo probably for ease of playing or prefer to play it there particular way.

Intro/Chours

Rhythm
e|----------4--------4--------4---------------------------------------------|
B|------4h5---5---------5--------5------------------------------------------|
G|--4h6---------6---------6---------6---------------------------------------|
D|--------------------------------------------------------------------------|
A|--------------------------------------------------------------------------|
E|--------------------------------------------------------------------------|

Lead Riff
     "Its   so  nov-le" *Johny Marr uses a bottle cap for the slide*
e|--------------------------------------------------------------------------|
B|--------------------------------------------------------------------------|
G|----8>>>>>11>>>6>>4-------------------------------------------------------|
D|--------------------------------------------------------------------------|
A|--------------------------------------------------------------------------|
E|--------------------------------------------------------------------------|

End Chours
     "Cheat on me!     Cheat on me"
e|-----55--55--55-55---55--55--55-77----------------------------------------|
B|-----55--55--55-55---55--55--55-77----------------------------------------|
G|--------------------------------------------------------------------------|
D|--------------------------------------------------------------------------|
A|--------------------------------------------------------------------------|
E|--------------------------------------------------------------------------|

First Verse
(This was hard to figure out, It's not accurate but it is the gist of how to play it)

e|----44--4--4-4--44---4--4-4--4-4-4-4--------------------------------------|
B|----55--5--5-4--44---4--4h5--5p4h5p4--------------------------------------|
G|----66--6--6-4--64---4--4h6--6p4h6p4--------------------------------------|
D|--------------------------------------------------------------------------|
A|--------------------------------------------------------------------------|
E|--------------------------------------------------------------------------|

End First Verse

e|---44--4-5-7-9----4-44-2h4p2----------------------------------------------|
B|---55--5-5-7-9----5-44-4-4-4----------------------------------------------|
G|---66---------------------------------------------------------------------|
D|--------------------------------------------------------------------------|
A|--------------------------------------------------------------------------|
E|--------------------------------------------------------------------------|

Bridge (With Reverb and mabye Chours) *Whammy Bar or Vibrado

e|-------4~----------------------2~-----------------------------------------|
B|-------------5~---------------------4~------------------------------------|
G|--6~--------------6~-------4~------------4~-------------------------------|
D|--------------------------------------------------------------------------|
A|--------------------------------------------------------------------------|
E|--------------------------------------------------------------------------|

Second Verse

e|---44--4-5-7-9----4-44-2h4p2--22------------------------------------------|
B|---55--5-5-7-9----5-44-4-4-4--44------------------------------------------|
G|--------------------------------------------------------------------------|
D|--------------------------------------------------------------------------|
A|--------------------------------------------------------------------------|
E|--------------------------------------------------------------------------|

Solo (sort of)

e|-----------------------------------------------|
B|----------9~-----9~----------------------------|
G|-------8~-----8~----8~---88-6------------------|
D|-----------------------------------------------|
A|-----------------------------------------------|
E|-----------------------------------------------|

Coda/Rhythm Solo

e|--------------------------------------------------------------------------|
B|--------------------------------------------------------------------------|
G|---66-6---22-44-----------------------------------------------------------|
D|---66-6---22-44-----------------------------------------------------------|
A|---44-4---00-22-----------------------------------------------------------|
E|--------------------------------------------------------------------------|
Добавлено: 08.07.2012
Другие материалы по этой песне:
  • Аккорды и текст

Страница создана 25.04.2012
http://primanota.ru/the-cribs/cheat-on-me-chords.htm
Привет, Гость.
Предлагаем пройти революционный курс по гитаре.
Подарок от PrimaNota.Ru, забирай!