PrimaNota.ru - самый крупный в мире бесплатный архив песенных текстов, аккордов, табулатур и нот


The Cribs - Ancient History - текст песни, таба, бас-таба, видео

Регистрация Запомнить меня
Войти через:  Facebook Google Twitter Vk Yandex Mail.ru

The Cribs - Ancient History - текст песни, таба, бас-таба, видео

Печатать
Просмотров: 148
intro/break

e-----------------------------------------------------------------------|
b--5-5-5---5-5-5-5-5-5-3-3-3-3-3-3--------------------------------------|
g--4-4-4----------------------------------------------------------------|
d--5-5-5---(work out the strumming pattern)-----------------------------|
a-----------------------------------------------------------------------|
e-----------------------------------------------------------------------|


verses

e-----------------------------------------------------------------------------------|
b--x7x8x7-0--x7x8x7-0--x7x8x7-0--x7x12x5/7--x7x12x10/8----x7x8x7-0------------------|
g-----------------------------------------------------------------------------------|
d-----------------------------------------------------------------------------------|
a-----------------------------------------------------------------------------------|
e-----------------------------------------------------------------------------------|


chorus

e-----------------------------------------------------------------------------|
b-------10-12--10-10-12---------15-15-15-15-12-12-12-12--10-12--12------------|
g--12------------------------12-------------------------------------12--------|
d--12------------------------12-------------------------------------12--------|
a--10------------------------10-------------------------------------10--------|
e---------------------------------------------------------------------------x-|


outro

(pick really fast)

e------------10--------------------15-14------------10--------------------15-|
b--7-8-7-8------8-7-8--7-8-7-8----------7-8-7-8--------8-7-8--7-8-7-8-15-----|
g----------------------------------------------------------------------------|
d----------------------------------------------------------------------------|
a----------------------------------------------------------------------------|
e----------------------------------------------------------------------------|

intro x4
verse x2
chorus x1
verse x2 (add b--8-10-8-10-12-7 on)
chorus x2
break x2
verse x1 (add b--8-10-8-10-12-7 on)
chorus x2
break x2
verse x1
outro xa lot


sorry, but this is quite rough
Добавлено: 18.07.2012
Другие материалы по этой песне:
  • Аккорды и текст

Страница создана 29.06.2012
http://primanota.ru/the-cribs/ancient-history-chords.htm
Привет, Гость.
Предлагаем пройти революционный курс по гитаре.
Подарок от PrimaNota.Ru, забирай!