PrimaNota.ru - самый крупный в мире бесплатный архив песенных текстов, аккордов, табулатур и нот


The Cribs - An Ivory Hand - таба, видео

Регистрация Запомнить меня
Войти через:  Facebook Google Twitter Vk Yandex Mail.ru

The Cribs - An Ivory Hand - таба, видео

Печатать
Просмотров: 125
-------------------------------------------------------------------------------
                          And Ivory Hand - The Cribs
-------------------------------------------------------------------------------
Tabbed by: Rory H
E-mail: rdeh10@googlemail.com

Tuning: EADGBe

This is the first single to be released from The Cribs' new album 'For All My Sisters' and it's nothing
too hard! There are some parts which are fairly difficult to hear but I've done my best :) Any corrections/
improvements, please leave them in the comments or email me and I will update the tab!
Enjoy!

Lead Guitar:

Verse 1:

e|---------------10-----------------------------|                           |--------|
B|-12-10-----12-----12-10-----12-10----12-10----|                           |--12----|
G|-------12---------------9---------12-------12-| x4 (end on 4th time with: |--------|
D|----------------------------------------------|                           |--------|
A|----------------------------------------------|                           |-------9|
E|----------------------------------------------|                           |--------|

Chorus:

e|-12-10----------------------10----------------------------------------------------------------------------|
B|-------13-12-10----10----------13-12-12-------------------------------------------------------------------|
G|----------------12-------12-------------9-11-12---12-12-12-14-14-14-16-16-16-17-17-17-14-14-14-14-14-14s19|
D|----------------------------------------------------------------------------------------------------------|
A|----------------------------------------------------------------------------------------------------------|
E|----------------------------------------------------------------------------------------------------------|

Verse 2:
(Same as verse 1 but something along these lines is played on another lead with some delay and a cleaner tone)

e|------------------------------|
B|------------------------------|
G|-7--11--12------7s11-12-------| x2 it's quite low in the mix, so cant make out what it really is
D|-------------9----------------|
A|------------------------------|
E|------------------------------|

Chorus x2

Bridge:

e|-------------------------------------------------------------------------------------------------------|
B|---------------------14--------------------------------------------------------------------------------|
G|------------------------12----12----12----12----12----12----12----12----12-----------------------------|
D|-9-10-----------9-12-------16----16----16----16----16----16----16----16----16--9--10--------------9-12-|
A|------9-7-5--10-----------------------------------------------------------------------9----------------|
E|-----------------------------------------------------------------------------------------12-10-10------|

Solo:
(The intro lead also plays lower in the mix here)
e|-----------------------------------------------------------------|
B|-----------------------------------------------------------------|
G|----------7-------------------------------7----------------------|
D|-9-7----9---9-7----9-7----9-7----9-7----9---9-7----9-7----9-7----|
A|-----10---------7------10-----10-----10---------7------10-----10-|
E|-----------------------------------------------------------------|
                                                               (You'll have to listen for picking here)
e|-----------------------------------------------------------------------------------------7.-----|
B|----------------------------------------------------------------------------------8.-10.--------|
G|---------7-----------------------------------------------------------------9.-11.---------------|
D|--9---------9-7----9-7----9-7------9---------9-7----9-7----9-7------9.-12.----------------------|
A|---s10--7-------7------10-----10-----s10--7-------7------10-----10------------------------------|
E|------------------------------------------------------------------------------------------------|

Chorus x2
--END--

--------------------------------------------------------------------------------------------------------

Rhythm Guitar:

Verse 1:

e|-------------------------------------------|
B|-------------------------------------------|
G|-------------9-9-9-9-9-9-------------------| x2
D|-5-5-5-5-5-5-9-9-9-9-9-9-10-10-10-10-10-10-|
A|-5-5-5-5-5-5-7-7-7-7-7-7-10-10-10-10-10-10-|
E|-3-3-3-3-3-3-------------8--8--8--8--8--8--|


e|-------------------------------------------------------------|
B|-------------------------------------------------------------|
G|-8-8-8-8-8-8-16-16-16-16-16-16-9-9-9-9-9-9-19-19-19-19-19-19-| x2
D|-------------------------------------------------------------|
A|-6-6-6-6-6-6-14-14-14-14-14-14-7-7-7-7-7-7-17-17-17-17-17-17-|
E|-------------------------------------------------------------|

Pre-Chorus:

e|--------------------|
B|--------------------|
G|--------------------|
D|--5-----------------|
A|--5-x18-------------|
E|--3-----3-3-3-4-4-4-|

Chorus:

e|---------------------------------------------------------------------------------------------------|
B|---------------------------------------------------------------------------------------------------|
G|---------------------------------------------------------------------------------------------------|
D|-------------------5-5-5-4-4-4-4-4-4-4-5-4-2-4-2-------------------5-5-5-------------5-5-5-9-9-9---|
A|-2-2-2-3-3-3-5-5-5-------------------------------5-5-5-7-7-7-9-9-9-------7-7-7-9-9-9---------------|
E|---------------------------------------------------------------------------------------------------|

e|-------------------------------------------------------------------------------|
B|-------------------------------------------------------------------------------|
G|-------------------------------------------------------------------------------|
D|-5-5-5-7-7-7-9-9-9-10-10-10-7-7-7-7-7-7s12-12-12-12-12-12-12-5-----------------|
A|-------------------------------------------------------------5-x18-------------|
E|-------------------------------------------------------------3-----3-3-3-3-3-3-|

Verse 2:

e|-------------------------------------|
B|-------------------------------------|
G|-------------------------5-5-5-5-5-5-|
D|-5-5-5-5-5-5-2-2-2-2-2-2-5-5-5-5-5-5-| x2
A|-5-5-5-5-5-5-2-2-2-2-2-2-3-3-3-3-3-3-|
E|-3-3-3-3-3-3-0-0-0-0-0-0-------------|

Verse part 2 x1
Chorus x2

Can't quite work out the lead bit for the bridge and solo, but the rest is pretty straight forward! 


************************************

| /   slide up
| \   slide down
| h   hammer-on
| p   pull-off
| ~   vibrato
| +   harmonic
| x   Mute note
| b   Bend
| pb  Pre-bend
| br  Bend release
| pbr Pre-bend release
| brb Bend release bend

************************************
Добавлено: 30.07.2015
Другие материалы по этой песне:
  • Аккорды и текст

Страница создана 30.07.2015
http://primanota.ru/the-cribs/an-ivory-hand-chords.htm
Привет, Гость.
Предлагаем пройти революционный курс по гитаре.
Подарок от PrimaNota.Ru, забирай!