PrimaNota.ru - самый крупный в мире бесплатный архив песенных текстов, аккордов, табулатур и нот


The Creepshow - Youll Come Crawlin - бас-таба, видео

Регистрация Запомнить меня
Войти через:  Facebook Google Twitter Vk Yandex Mail.ru

The Creepshow - Youll Come Crawlin - бас-таба, видео

Печатать
Просмотров: 64
-------------------------------------------------------------------------------
                        You'll Come Crawlin'- The Creepshow
-------------------------------------------------------------------------------

Tabbed By : Eric F 
e-mail: blindpuncher@gmail.com

Tuning:EADG

Intra/Versa P1
                                        
G|--------|-----------|-----------x2|-----------------|------------x2|
D|--------|--x9----x9-|-----------x2|-----------------|------------x2|
A|7~------|7----77----|7---9----9-x2|7-5-7-9-10-9-7-5-|----9-----9-x2|
E|-----7~-|-----------|-7x---77x--X2|-----------------|77x---77x---x2|


(You got greedy...)
G|-----------------|---------------|---------------------------------|
D|-----------------|---------------|---------------------------------|
A|-7-10-7---7-10-7-|---------------|-7-10-7---7-10-7-----9-----9-----|
E|8-------8--------|7-7-7-7--5-3-2-|8-------8---------77-----77------|

(A little...)
G|------------------------X2|------------------------------|------------------------------|
D|--x9----x9--------------X2|------------------------------|------------------------------|
A|7----77-----7---9-----9-X2|7-5-7-9-10-9-7-5------9-----9-|7-5-7-9-10-9-7-5-----9--------|
E|-------------7x---77x---X2|-------------------7----77----|-------------------7----x7532-|

(You got greedy...)
G|-----------------|---------------|---------------------------------|
D|-----------------|---------------|---------------------------------|
A|-7-10-7---7-10-7-|---------------|-7-10-7---7-10-7-----------------|
E|8-------8--------|7-7-7-7--5-3-2-|8-------8---------10-10-10-10-875|

(Ain't Gonna....)          (End with this riff)
G|------------------------X3|------------------------------------------|
D|5---5-------------------X3|------------------------------------------|
A|-5----975--7----7-----7-X3|-7-10-7----7-10-7-------------------------|
E|-------------7----710---X3|8--------8--------7-7-7-7-7-5-3-2---------|

(This should'nt...)
G|------------------------X2|------------------------------|------------------------------|
D|--x9----x9--------------X2|------------------------------|------------------------------|
A|7----77-----7---9-----9-X2|7-5-7-9-10-9-7-5------9-----9-|7-5-7-9-10-9-7-5-----9--------|
E|-------------7x---77x---X2|-------------------7----77----|-------------------7----7~----|

(You got greedy...)
G|-----------------|---------------|---------------------------------|
D|-----------------|---------------|---------------------------------|
A|-7-10-7---7-10-7-|---------------|-7-10-7---7-10-7-----------------|
E|8-------8--------|7-7-7-7--5-3-2-|8-------8---------10-10-10-10-875|


(Ain't Gonna....)          (So I can have you back and...)
G|------------------------X3|------------------------------------------|
D|5---5-------------------X3|------------------------------------------|
A|-5----975--7----7-----7-X3|-7-10-7----7-10-7-------------------------|
E|-------------7----710---X3|8--------8--------7-7-7-7-7-5-3-2---------|

(Just so...)    (You'll Come Crawlin'...)
G|-------|------------------------------------|
D|-------|------------------------------------|
A|-------|------------------------------------|
E|8~~~~~-|-88888888-77777777-88888888--10--10-|

(Ain't Gonna....)          (So I can have you back and...)
G|------------------------X5|------------------------------------------|
D|5---5-------------------X5|------------------------------------------|
A|-5----975--7----7-----7-X5|-7-10-7----7-10-7-------------------------|
E|-------------7----710---X5|8--------8--------7-7-7-7-7-5-3-2---------|


G|----------------------|
D|----------------------|
A|----------------------|
E|8-----------------0~--|



HAHA! Thats everything! By far my favorite song from this album.
I lifed this on a electric bass, not an upright like the bassist from the band.
Song is wicked fun to play and you can sing back-up for the chorus :)
Watch your timing and remember that mutes (x) sound good on uprights
enjoy!!!


| /  slide up
| \  slide down
| h  hammer-on
| p  pull-off
| ~  vibrato
| +  harmonic
| x  Mute note
===============================================================================
Добавлено: 19.08.2013
Другие материалы по этой песне:
  • Аккорды и текст

Страница создана 19.08.2013
http://primanota.ru/the-creepshow/youll-come-crawlin-chords.htm
Привет, Гость.
Предлагаем пройти революционный курс по гитаре.
Подарок от PrimaNota.Ru, забирай!