PrimaNota.ru - самый крупный в мире бесплатный архив песенных текстов, аккордов, табулатур и нот


The Cowsills - Yesterdays Girl - бас-таба, видео

Регистрация Запомнить меня
Войти через:  Facebook Google Twitter Vk Yandex Mail.ru

The Cowsills - Yesterdays Girl - бас-таба, видео

Печатать
Просмотров: 147
Tabbed by: 6METAL6BASSIST6
E-mail: petergriffinav@gmail.com

Tuning: EADG

G|--------|
D|12--\---|
A|--------|
E|--------|

G|----------------------------------------------------------------|
D|5---------------5---------------------------4---------------4---| x2
A|------------5-------5---4---3---2---------------2---4---6-------|
E|----------------------------------------------------------------|

G|--------------------------------------------------------4-------|
D|------------------------------------------------------------7---|
A|7-----------7-------7-------7---6-----------6---6---6-----------|
E|----------------------------------------------------------------|

G|----------------------------------------------------------------|
D|5-----------5-------5-------4-----------------------4---5-------|
A|--------------------------------7---------------7-----------7---|
E|--------------------------------------------7-------------------|

G|------------------------5---4-----------------------------------|
D|------------5-------------------7---------------7---5---4-------|
A|3---------------3-----3---------------------7---------------7---|
E|----------------------------------------------------------------|

G|----------------------------------------------------------------|
D|----------------------------------------------------------------|
A|5-----------5---5-----------5---5---5---5---5---------------5---|
E|------------------------------------------------7---7-----------|

0:34

G|--------------------------------------------------------4-------|
D|------------------------------------------------------------7---|
A|7-----------7-------7-------7---6-----------6---6---6-----------|
E|----------------------------------------------------------------|

G|----------------------------------------------------------------|
D|5-----------5-------5-------4-----------------------4---5-------|
A|--------------------------------7---------------7-----------7---|
E|--------------------------------------------7-------------------|

G|------------------------5---4-----------------------------------|
D|------------5-------------------7---------------7---5---4-------|
A|3---------------3---------------------------7---------------7---|
E|----------------------------------------------------------------|

G|----------------------------------------------------------------|
D|----------------------------------------------------------------|
A|5-----------5---5-----------5---5---5---5---5---5---5---5---5---|
E|----------------------------------------------------------------|

0:56

G|--------4-----------4-------------------------------------------|
D|----6-----------6-------2---------------2-----------------------|
A|7-----------7---------------3-------3-------------------3---5---|
E|--------------------------------5-----------5-------5-----------|

G|--------4-----------4-------------------------------------------|
D|----6-----------6-------2---------------2---------------7---5---|
A|7-----------7-7-------------3-------3---------------7-----------|
E|--------------------------------5-----------5-------------------|

G|----------------------------------------------------------------|
D|3---3---3-------3---3-5-3---2-----------------------------------|
A|------------3-3-----------------5---5---5-------5-5---5-5-5-3---|
E|--------------------------------------------5-5-----------------|

G|--------------------------------|
D|------------4-4-------------4---|
A|2---2---2-------2---4---6-------|
E|--------------------------------|

1:14

G|------------------------------9-----------------------------------------------------------------|
D|------------------------9-----------------------------------------------5-----------------------|
A|7-----------------------------------6-----------------------------5-----------------------------|
E|------------------------------------------------------------------------------------------------|

G|------------------------------------------------------------------------5-----4-----------------|
D|5-----4-----------------------------------------------------------------------------7-----------|
A|------------7-----------------------7-----5-----3-----------------------------------------------|
E|------------------------------------------------------------------------------------------------|

G|------------------------|
D|------------------------|
A|------------------5-----|
E|------------------------|

G|----------------------------------------------------------------|
D|5---------------5---------------------------4---------------4---| x2
A|------------5-------5---4---3---2---------------2---4---6-------|
E|----------------------------------------------------------------|

1:40

G|--------------------------------------------------------4-------|
D|------------------------------------------------------------7---|
A|7-----------7-------7-------7---6-----------6---6---6-----------|
E|----------------------------------------------------------------|

G|----------------------------------------------------------------|
D|5-----------5-------5-------4-----------------------4---5-------|
A|--------------------------------7---------------7-----------7---|
E|--------------------------------------------7-------------------|

G|------------------------5---4-----------------------------------|
D|------------5-------------------7---------------7---5---4-------|
A|3---------------3---------------------------7---------------7---|
E|----------------------------------------------------------------|

G|----------------------------------------------------------------|
D|----------------------------------------------------------------|
A|5-----------5---5-----------5---5---5---5---5---------------5---|
E|------------------------------------------------7---7-----------|

2:01

G|--------------------------------------------------------4-------|
D|------------------------------------------------------------7---|
A|7-----------7-------7-------7---6-----------6---6---6-----------|
E|----------------------------------------------------------------|

G|----------------------------------------------------------------|
D|5-----------5-------5-------4-----------------------4---5-------|
A|--------------------------------7---------------7-----------7---|
E|--------------------------------------------7-------------------|

G|------------------------5---4-----------------------------------|
D|------------5-------------------7---------------7---5---4-------|
A|3---------------3---------------------------7---------------7---|
E|----------------------------------------------------------------|

G|----------------------------------------------------------------|
D|----------------------------------------------------------------|
A|5-----------5---5-----------5---5---5---5---5---5---5---5---5---|
E|----------------------------------------------------------------|

2:22

G|--------4-----------4-------------------------------------------|
D|----6-----------6-------2---------------2-----------------------|
A|7-----------7---------------3-------3-------------------3---5---|
E|--------------------------------5-----------5-------5-----------|

G|--------4-----------4-------------------------------------------|
D|----6-----------6-------2---------------2---------------7---5---|
A|7-----------7---------------3-------3---------------7-----------|
E|--------------------------------5-----------5-------------------|

G|----------------------------------------------------------------|
D|3---3---3-------3---3-5-3---2-----------------------------------|
A|------------3-3-----------------5---5---5-------5-5---5-5---3---|
E|--------------------------------------------5-5-----------------|

G|--------------------------------|
D|------------4-4-------------4---|
A|2---2---2-------2---4---6-------|
E|--------------------------------|

2:40

G|------------------------------9-----------------------------------------------------------------|
D|------------------------9-----------------------------------------------5-----------------------|
A|7-----------------------------------6-----------------------------5-----------------------------|
E|------------------------------------------------------------------------------------------------|

G|------------------------------------------------------------------------5-----4-----------------|
D|5-----4-----------------------------------------------------------------------------7-----------|
A|------------7-----------------------7-----5-----3-----------------------------------------------|
E|------------------------------------------------------------------------------------------------|

G|------------------------------------------------------9-----------------------------------------|
D|------------------------------------------------9-----------------------------------------------|
A|------------------5-----7-----------------------------------6---------------------------6-6---6-|
E|------------------------------------------------------------------------------------------------|

G|------------------------------------------------------------------------------------------------|
D|------5-----------------5-----4-----------------------------------------------------------------|
A|5-----------------------------------7-----------------------------------7-----------------------|
E|------------------------------------------------------------7-----7-----------------------------|

G|------9-----------------------------------------------------------------------------------------|
D|9-----------------------------------------------------5-----------------5-----4-----------------|
A|------------6-----------------------------6-6---6-5---------------------------------7-----------|
E|------------------------------------------------------------------------------------------------|

G|------------------------------------4-----5-----5-----4-------------------------------------------|
D|----------------------------------5-------------------------7-----------------------------12--\---|
A|----7-7-----7-----5-----3-------------------------------------------------------------------------|
E|--------------------------------------------------------------------------------------------------|

G|----------------------------------------------------------------|
D|5---------------5---------------------------4---------------4---|
A|------------5-------5---4---3---2---------------2---4---6-------|
E|----------------------------------------------------------------|

G|------------------------------------------------------------------------------------------------|
D|5---------------5---------------------------4-------------------------------4-------------------|
A|------------5-------5---4---3---2-------------------2-------4-------6---------------7-----------|
E|------------------------------------------------------------------------------------------------|
Добавлено: 14.04.2015
Другие материалы по этой песне:
  • Аккорды и текст

Страница создана 14.04.2015
http://primanota.ru/the-cowsills/yesterdays-girl-chords.htm
Привет, Гость.
Предлагаем пройти революционный курс по гитаре.
Подарок от PrimaNota.Ru, забирай!