PrimaNota.ru - самый крупный в мире бесплатный архив песенных текстов, аккордов, табулатур и нот


The Cowsills - What Is Happy - бас-таба, видео

Регистрация Запомнить меня
Войти через:  Facebook Google Twitter Vk Yandex Mail.ru

The Cowsills - What Is Happy - бас-таба, видео

Печатать
Просмотров: 77
Tabbed by: 6METAL6BASSIST6
E-mail: petergriffinav@gmail.com

Tuning: EADG

G|--------------------------------------------------------|
D|----5-8-5-------8-5-------5-8-5-8---------5-------5-8-5-|
A|8-8-----------------8---8-------------------8---8-------|
E|--------------------------------------------------------|

0:06

G|------------------------------------------------------------------------------------------------|
D|8---------8-7---------7-5---------5---------------------------------------------------------5-7-|
A|------------------------------------8-----------6-----------6-----6-----5-----------5-----8-----|
E|----------------------------------------------------------6-----6-----6-----------6-------------|

G|------------------------------------------------------------------------------------------------|
D|8---------8-7---------7-5---------5-----------------------------------5-6-----6---5-------------|
A|------------------------------------8---------8-6-----------6-----6---------6---6---8---5-----5-|
E|----------------------------------------------------------6-----6-------------------------6-----|

0:20

G|------------------------------------------------------------------------------------------------|
D|------------------------------------------------------8-----8-----8---7-5-----5-----5-----5-----|
A|6-----6-----6-----6-----6-----------6-----6---------------8-----------------------5-----5-----5-|
E|----------6-----6-----6-----------6-----6-------6-----------------------------------------------|

G|------------------------------------------------------------------------------------------------|
D|------------------------------------------------------------------------------------------5---7-|
A|3-----3-----3-----3---5-6-----6-----6-----6---8-8-----8-----8-----8---5-8-----8-----8-----------|
E|----------3-----------------------6-----6-----------------8-----8-----------------8-------------|

0:36

G|------------------------------------------------------------------------------------------------|
D|8---------8-7---------7-5---------5---------------------------------------------------------5-7-|
A|------------------------------------8---------8-6-----------6-----6-----5-----------5-----8-----|
E|----------------------------------------------------------6-----6-----6-----------6-------------|

G|------------------------------------------------------------------------------------------------|
D|8---------8-7---------7-5---------5-----------------------------------5-6-----6---5-------------|
A|------------------------------------8---------8-6-----------6-----6---------6---6---8---5-----5-|
E|----------------------------------------------------------6-----6-------------------------6-----|

0:52

G|------------------------------------------------------------------------------------------------|
D|------------------------------------------------------8-----8-----8-8-7-5-----5-----5-----5-----|
A|6-----6-----6-----6-----6-----------6-----6---------------8-----------------------5-------------|
E|----------6-----6-----6-----------6-----6-------6-----------------------------------------------|

G|------------------------------------------------------------------------------------------------|
D|------------------------------------------------------------------------------------------------|
A|3-----3-----3-----3-----6-----6-----6-----6-----8-----8-----8-----8---5-8-----8-----8-----8-----|
E|----------3-----3-----------------6-----6-----------------8-----------------------8-------------|

1:07

G|------------------------------------------------------------------------------------------------|
D|8-----8-----7-----7-----5-----5---------------------------------------------------------------5-|
A|----------------5-------------------8-----8-----6-----6-----6-----6-----5-----5-----5-----8-----|
E|----------------------------------------------6-----------6-----------6-----------6-------------|

G|------------------------------------------------------------------------------------------------|
D|8-----8-----7-----7-----5-----5-----------------------------------------5-----6-----------------|
A|----------------5-------------------8-----8---8-6-----6-----6-----6---6-------------------------|
E|----------------------------------------------------------6-------------------------------------|

1:22

G|------------------------------------------------------------------------------------------------|
D|------------------------------------------------------8-----8-----8-8-7-5-----5-----5-----5-----|
A|6-----6-----6-----6-----6-----6-----6-----6---------------8-----8-----------------5-------------|
E|----------6-----6-----6-----------6-----6-------6-----------------------------------------------|

G|------------------------------------------------------------------------------------------------|
D|------------------------------------------------------------------------------------------------|
A|3-----3-----3-----3---5-6-----6-----6-----6-----8-----8-----8-----8---5-8-----------8-----8-----|
E|----------3-----------------------6-----6-----------------8-------------------------------------|

G|------------------------|
D|------------------------|
A|9-----9-----9-----9-----|
E|------------------------|

1:40

G|------------------------------------------------------------------------------------------------|
D|9-----9-----8-----8-----6-----6-----------------------------9-----------------------------------|
A|----------9-----------6-----------6-9-----9-----7-----7-----------7-----6-----6-----6-----9-----|
E|------------------------------------------------------------------------------------------------|

G|------------------------------------------------------------------------------------------------|
D|9-----9-----8-----8-----6-----6---------------------------------------6-7-----------------------|
A|----------9-----------------------6-9-----9-----7-----7-----7-----------------------------------|
E|------------------------------------------------------------------------------------------------|

1:55

G|------------------------------------------------------------------------------------------------|
D|------------------------------------------------------9-----9-----9-----6-----6-----6-----6-----|
A|7-----7-----7-----7-----7-----7-----7-----7---------------9-----9-------------------------------|
E|----------7-----7-----7-----------7-----7-------7-----------------------------------------------|

G|------------------------------------------------------------------------------------------------|
D|------------------------------------------------------------------------------------------------|
A|4-----4-----4-----4---6-7-----7-----7-----7-----9-----9-----9-----9-----9-----9-----------------|
E|----------4-----4-----------------7-----7-----------------9-------------------------------------|

G|------------------------------------------------------------------------------------------------|
D|9---------8-6-----------------------------------9---------8-6-----------------------------------| x2  to
A|------------------------------------9-----------------------------------------------9-----------| fadeout.
E|------------------------9-----------------------------------------------9-----------------------|
Добавлено: 15.06.2016
Другие материалы по этой песне:
  • Аккорды и текст

Страница создана 15.06.2016
http://primanota.ru/the-cowsills/what-is-happy-chords.htm
Привет, Гость.
Предлагаем пройти революционный курс по гитаре.
Подарок от PrimaNota.Ru, забирай!