PrimaNota.ru - самый крупный в мире бесплатный архив песенных текстов, аккордов, табулатур и нот


The Cowsills - Please Mr Postman - бас-таба, видео

Регистрация Запомнить меня
Войти через:  Facebook Google Twitter Vk Yandex Mail.ru

The Cowsills - Please Mr Postman - бас-таба, видео

Печатать
Просмотров: 138
Авторы: Robert Bateman, Georgia Dobbins, Freddie Gorman, Brian Holland, William Garrett

Tabbed by: 6METAL6BASSIST6
E-mail: petergriffinav@gmail.com

Tuning: EADG

Their only version which is live, and my favorite.

0:10

G|------------|
D|------------|
A|------------|
E|6---6---6---|

G|----------------------------------------------------------------|
D|----------------------------------------------------------------|
A|6---------------------------------------------------------------|
E|----------------------------------------------------------------|

G|----------------------------------------------------------------|
D|----------------------------------------------------------------|
A|3-------------------------------------------------------3---5---|
E|----------------------------------------------------------------|

G|----------------------------------------------------------------|
D|------------5---8-------5---8---------------5---8-------5---8---|
A|6-------------------------------6-------------------------------|
E|----------------------------------------------------------------|

G|----------------------------------------------------------------|
D|----------------5-----------5-------------------5-----------5---|
A|3-----------6-----------6-------3-----------6-----------6-------|
E|----------------------------------------------------------------|

G|----------------------------------------------------------------|
D|----------------------------------------------------------------|
A|------------3---6-------3---6---------------3---6-------3---6---|
E|4-------------------------------4-------------------------------|

G|----------------------------------------------------------------|
D|8---8---8---8---8---8---8---8-----------------------------------|
A|----------------------------------------------------------------|
E|--------------------------------6---6---6---6---6---6---6---6---|

0:33

G|----------------------------------------------------------------|
D|----------------------------------------------------------------|
A|6-----------6-------------------6-----------6-----------5-------|
E|----------------6-----------6-------------------6---------------|

G|----------------------------------------------------------------|
D|----------------------------------------------------------------|
A|3-----------3-------------------3-----------3-----------3-------|
E|----------------3-----------3-------------------3---------------|

G|----------------------------------------------------------------|
D|--------------------------------6-----------6-------------------|
A|------------------------6-----------------------6-------6-------|
E|4-----------4---4-----------------------------------------------|

G|----------------------------------------------------------------|
D|8---8---8---8---8---8---8---8---8---8---8---8---8---8---8---8---|
A|----------------------------------------------------------------|
E|----------------------------------------------------------------|

0:47

G|----------------------------------------------------------------|
D|----------------------------------------------------------------|
A|6-----------6-------------------6-----------6---6-------5-------|
E|----------------6-----------6-----------------------------------|

G|----------------------------------------------------------------|
D|----------------------------------------------------------------|
A|3-----------3-------------------3-----------3-------------------|
E|----------------3-----------3-------------------3-----------3---|

G|----------------------------------------------------------------|
D|--------------------------------6-----------6-------------------|
A|----------------6-----------6-------------------6---------------|
E|4-----------4---------------------------------------------------|

G|----------------------------------------------------------------|
D|----------------------------------------------------------------|
A|----------------------------------------------------------------|
E|6---6---6---6---6---6---6---6---6---6---6---6---6---6---6---6---|

1:01

G|----------------------------------------------------------------|
D|------------5---8-------5---8---------------5---8-------5---8---|
A|6-------------------------------6-------------------------------|
E|----------------------------------------------------------------|

G|----------------------------------------------------------------|
D|----------------5-----------5-------------------5-----------5---|
A|3-----------6-----------6-------3-----------6-----------6-------|
E|----------------------------------------------------------------|

G|----------------------------------------------------------------|
D|----------------------------------------------------------------|
A|------------3---6-------3---6---------------3---6-------3---6---|
E|4-------------------------------4-------------------------------|

G|----------------------------------------------------------------|
D|8---8---8---8---8---8---8---8---8---8---6---6---5---5---3---3---|
A|----------------------------------------------------------------|
E|----------------------------------------------------------------|

1:16

G|----------------------------------------------------------------|
D|----------------------------------------------------------------|
A|6-----------6-------------------6-----------6---6-------5-------|
E|----------------6-----------6-----------------------------------|

G|----------------------------------------------------------------|
D|----------------------------------------------------------------|
A|3-----------3-------------------3-----------3-------------------|
E|----------------3-----------3-------------------3-----------3---|

G|----------------------------------------------------------------|
D|--------------------------------6-----------6-----------6-----/-|
A|----------------6-----------6-------------------6---------------|
E|4-----------4---------------------------------------------------|

G|----------------------------------------------------------------|
D|8---8---8---8---8---8---8---8---8---8---6---6---5---5---3---3---|
A|----------------------------------------------------------------|
E|----------------------------------------------------------------|

1:30

G|----------------------------------------------------------------|
D|------------5---8-------5---8---------------5---8-------5---8---|
A|6-------------------------------6-------------------------------|
E|----------------------------------------------------------------|

G|----------------------------------------------------------------|
D|----------------5-----------5-------------------5-----------5---|
A|3-----------6-----------6-------3-----------6-----------6-------|
E|----------------------------------------------------------------|

G|----------------------------------------------------------------|
D|----------------------------------------------------------------|
A|------------3---6-------3---6---------------3---6-------3---6---|
E|4-------------------------------4-------------------------------|

G|----------------------------------------------------------------|
D|----------------------------------------------------------------|
A|--------------------------------------------------------3---5---|
E|6---------------------------------------------------6-----------|

1:45

G|----------------------------------------------------------------|
D|--------------------------------------------5---8-------5---8---|
A|6-----------6-------------------6-------------------------------|
E|----------------6-----------6-----------------------------------|

G|----------------------------------------------------------------|
D|----------------5-----------5-------------------5-----------5---|
A|3-----------6-----------6-------3-----------6-----------6-------|
E|----------------------------------------------------------------|

G|----------------------------------------------------------------|
D|----------------------------------------------------------------|
A|------------3---6-------3---6---------------3---6-------3---6---|
E|4-------------------------------4-------------------------------|

G|----------------------------------------------------------------|
D|----------------------------------------------------------------|
A|--------------------------------------------------------3---5---|
E|6---------------------------------------------------6-----------|

1:59

G|----------------------------------------------------------------|
D|------------------------------------------------------------5---|
A|6-----------6-------------------6-----------6-----------6-------|
E|----------------6-----------6-------------------6---------------|

G|----------------------------------------------------------------|
D|------------------------5-------------------------------5-------|
A|3---------------6-----------6---3---------------6-----------6---|
E|----------------------------------------------------------------|

G|----------------------------------------------------------------|
D|----------------------------------------------------------------|
A|------------3---6-------3---6---------------3---6-------3-------|
E|4-------------------------------4-------------------------------|

G|----------------------------------------------------------------|
D|8---8---8---8---8---8---8---8-/-8---8---6---6---5---5---3---3---|
A|----------------------------------------------------------------|
E|----------------------------------------------------------------|

2:13

G|----------------------------------------------------------------|
D|------------5---8-------5---8---------------5---8-------5---8---|
A|6-------------------------------6-------------------------------|
E|----------------------------------------------------------------|

G|----------------------------------------------------------------|
D|----------------5-----------5-------------------5-----------5---|
A|3-----------6-----------6-------3-----------6-----------6-------|
E|----------------------------------------------------------------|

G|----------------------------------------------------------------|
D|----------------------------------------------------------------|
A|------------3---6-------3---6---------------3---6-------3---5---|
E|4-------------------------------4-------------------------------|

G|--------------------------------|
D|--------------------------------|
A|6---------------------------6---|
E|--------------------------------|
Добавлено: 14.04.2015
Другие материалы по этой песне:
  • Аккорды и текст

Страница создана 14.04.2015
http://primanota.ru/the-cowsills/please-mr-postman-chords.htm
Привет, Гость.
Предлагаем пройти революционный курс по гитаре.
Подарок от PrimaNota.Ru, забирай!