PrimaNota.ru - самый крупный в мире бесплатный архив песенных текстов, аккордов, табулатур и нот


The Cowsills - Newspaper Blanket - бас-таба, видео

Регистрация Запомнить меня
Войти через:  Facebook Google Twitter Vk Yandex Mail.ru

The Cowsills - Newspaper Blanket - бас-таба, видео

Печатать
Просмотров: 89
Tabbed by: 6METAL6BASSIST6
E-mail: petergriffinav@gmail.com

Tuning: EADG

0:18

G|----------------|
D|----------------|
A|5---3-----------|
E|------------3---|

G|----------------------------------------------------------------|
D|--------------------------------3-----------3---3---3-----------|
A|3-----------3---3---3-------3---------------------------3---2---|
E|------------------------3---------------------------------------|

G|----------------------------------------------------------------|
D|----------------------------------------------------------------|
A|1---------------------------1---1---1-------1---2---2-------2---|
E|------------4---4---------------------------------------3-5---3-|

G|----------------------------------------------------------------|
D|--------------------------------3-----------3---3---3-----------|
A|3-----------3---3---3-------3---------------------------3-------|
E|------------------------3-----------------------------------1---|

G|----------------------------------------------------------------|
D|------------5-------------------------------5-------------------|
A|----5---------------5---------------5---------------5-----------|
E|3---------------------------3-------------------------------3---|

G|----------------------------------------------------------------|
D|--------------------------------3-----------3---3---3-----------|
A|3-----------3---3---3-------3---------------------------3---2---|
E|------------------------3---------------------------------------|

G|----------------------------------------------------------------|
D|----------------------------------------------------------------|
A|1---------------------------1---1---1-------1---2---2-------2---|
E|------------4---4---------------------------------------3-5-----|

G|----------------------------------------------------------------|
D|--------------------------------3-----------3---3---3-----------|
A|3-----------3---3---3-------3---------------------------3-------|
E|------------------------3-----------------------------------1---|

G|----------------------------12----------------------------------|
D|------------5-------12--------------12------5---------------5---|
A|----5-----------------------------------------------5---5-------|
E|3---------------------------------------------------------------|

1:00

G|5-----------------------4-------3-----------3---2-----------3-4-|
D|----------------------------------------------------------------|
A|----------------------------------------------------------------|
E|----------------------------------------------------------------|

G|5---------------4-------------------------------------------------|
D|----------------------------5---3---------------------------3-5---|
A|------------------------------------------------6---------------6-|
E|------------------------------------------------------------------|

G|----------------------------------------------------------------|
D|--------------------------3-5---6-------------------------3-5---|
A|----3-------4-------4---6-----------2-------4-------5---6-----6-|
E|4---------------------------------------------------------------|

G|----------------------------------------------------------------|
D|----------------------------------------------------------------|
A|--------------------------------------1-------------------------|
E|6-------6-------6-------6-------1-----------4---3-----------3---|

G|--------------------------------|
D|--------4-------4---------------|
A|--------------------5---5-------|
E|3---------------------------3---|

1:25

G|----------------------------------------------------------------|
D|--------------------------------3-----------3---3---3-----------|
A|3-----------3---3---3-------3---------------------------3---2---|
E|------------------------3---------------------------------------|

G|----------------------------------------------------------------|
D|----------------------------------------------------------------|
A|1---------------------------1---1---1-------1---2---2-------2---|
E|------------4---4---------------------------------------3-5---3-|

G|----------------------------------------------------------------|
D|--------------------------------3-----------3---3---3-----------|
A|3-----------3---3---3-------3---------------------------3-------|
E|------------------------3-----------------------------------1---|

G|----------------------------------------------------------------|
D|------------5-------------------------------5-------------------|
A|----5---------------5---------------5---------------5-----------|
E|3---------------------------3-------------------------------3---|

G|----------------------------------------------------------------|
D|--------------------------------3-----------3---3---3-----------|
A|3-----------3---3---3-------3---------------------------3---2---|
E|------------------------3---------------------------------------|

G|----------------------------------------------------------------|
D|----------------------------------------------------------------|
A|1---------------------------1---1---1-------1---2---2-------2---|
E|------------4---4---------------------------------------3-5-----|

G|----------------------------------------------------------------|
D|--------------------------------3-----------3---3---3-----------|
A|3-----------3---3---3-------3---------------------------3-------|
E|------------------------3-----------------------------------1---|

G|----------------------------12----------------------------------|
D|------------5-------12--------------12------5---------------5---|
A|----5-----------------------------------------------5---5-------|
E|3---------------------------------------------------------------|

2:07

G|5-----------------------4-------3-----------3---2---------------|
D|----------------------------------------------------------------|
A|----------------------------------------------------------------|
E|----------------------------------------------------------------|

G|5---------------4-------------------------------------------------|
D|----------------------------5---3---------------------------3-5---|
A|------------------------------------------------6---------------6-|
E|------------------------------------------------------------------|

G|----------------------------------------------------------------|
D|----------------------------5-----------------------------3-5---|
A|--------3-------3-4---6---6-------------2-------3-4---6-------6-|
E|----4-------------------------------3---------------------------|

G|----------------------------------------------------------------|
D|----------------------------------------------------------------|
A|--------------------------------------1-------------------------|
E|6-------6-------6-------6-------1-----------4---3-----------3---|

G|--------------------------------|
D|--------------------------------|
A|--------------------------------|
E|3---3---3---3---3---3---3---3---|

2:33

G|----------------------------------------------------------------|
D|--------------------------------3-------3-------3-------------3-|
A|3-------3-------3-------------3-----3-------3-------3---3---3---|
E|----3-------3-------3---3---3-----------------------------------|

G|----------------------------------------------------------------|
D|----------------6-------6-----6-----------------5-------5-----5-|
A|6-------6-----------6-------6---6-------6-----------5-------5---|
E|----6-------6-----------------------6-------6-------------------|

G|----------------------------------------------------------------|
D|--------------------------------3-------3-------3-------3-----3-|
A|3-------3-------3-------3-----3-----3-------3-------3-------3---|
E|----3-------3-------3-------3-----------------------------------|

G|----------------------------------------------------------------|
D|5-------5-------5-------5-------5---5---5---5---5-5-5-5-5-5-5-5-|
A|----5-------5-------5-------5-----------------------------------|
E|----------------------------------------------------------------|

2:53

G|5-----------------------4-------3-----------3---2---------------|
D|----------------------------------------------------------------|
A|----------------------------------------------------------------|
E|----------------------------------------------------------------|

G|5---------------4-------------------------------------------------|
D|----------------------------5---3---------------------------3-5---|
A|------------------------------------------------6---------------6-|
E|------------------------------------------------------------------|

G|----------------------------------------------------------------|
D|--------------------------3-5---6-------------------------3-5---|
A|----3-------4-------4---6-----------2-------4-------5---6-----6-|
E|4---------------------------------------------------------------|

G|----------------------------------------------------------------|
D|----------------------------------------------------------------|
A|--------------------------------------1-------------------------|
E|6-------6-------6-------6-------1-----------4---3-----------3---|


G|------------------------------------------------12--------------|
D|------------------------5---------------------------------------|
A|----------------------------------------------------------------|
E|3-----------3---3-----------------------------------------------|

G|------------------------12--------------------------------------|
D|12--------------------------------------------------------------|
A|----------------------------------------------------------------|
E|----------------------------------------------------------------|
Добавлено: 14.04.2015
Другие материалы по этой песне:
  • Аккорды и текст

Страница создана 14.04.2015
http://primanota.ru/the-cowsills/newspaper-blanket-chords.htm
Привет, Гость.
Предлагаем пройти революционный курс по гитаре.
Подарок от PrimaNota.Ru, забирай!