PrimaNota.ru - самый крупный в мире бесплатный архив песенных текстов, аккордов, табулатур и нот


The Cowsills - Mister Flynn - бас-таба, видео

Регистрация Запомнить меня
Войти через:  Facebook Google Twitter Vk Yandex Mail.ru

The Cowsills - Mister Flynn - бас-таба, видео

Печатать
Просмотров: 119
Tabbed by: 6METAL6BASSIST6
E-mail: petergriffinav@gmail.com

Tuning: EADG

0:03

G|------------|
D|3-----------|
A|----3---5---|
E|------------|

G|----------------------------------------------------------------|
D|----------------------------------------------------3-----------|
A|--------------------------------------------------------3---5---|
E|----------------------------------------------------------------|

G|--------------------------------------------------------4-------|
D|----------------------------------------------------7-----------|
A|------------------------------------------------------------5---|
E|----------------------------------------------------------------|

G|----------------------------------------------------------------|
D|3-------------------------------------------------------7-------|
A|------------------------------------------------------------7---|
E|----------------------------------------------------5-----------|

G|--------------------------------------------------------4-------|
D|----------------------------------------------------7-----------|
A|5-----------------------------------------------------------5---|
E|----------------------------------------------------------------|

G|----------------------------------------------------7-------6---|
D|3-------------------------------------------------------7-------|
A|----------------------------------------------------------------|
E|----------------------------------------------------------------|

0:25

G|7---------------------------6---5-------7---------------4-------|
D|--------------------3---7---------------------------7-----------|
A|--------5---------------------------------------------------5---|
E|----------------------------------------------------------------|

G|--------------------5-------10--6---------------------------6---|
D|3-----------7---------------------------------------7---5-------|
A|----------------------------------------------------------------|
E|----------------------------------------------------------------|

G|7---------------------------6---5-------7---------------4-------|
D|--------------------3---7---------------------------7-----------|
A|--------5---------------------------------------------------5---|
E|----------------------------------------------------------------|

G|----------------------------------------------------------------|
D|------------7-------5-----------------------------------7---5---|
A|------------------------7---4-----------------------7-----------|
E|5-------------------------------5---5---5---5---5---------------|

G|----------------------------------------------------------------|
D|4---4-------4-------4-------4---7---7---7---7---7-----------2---|
A|--------------------------------------------------------3-------|
E|----------------------------------------------------5-----------|

0:44

G|--------------------------------------------8-------------------|
D|3---3-------3-------3-------3---3---3---------------8-------5---|
A|----------------------------------------------------------------|
E|----------------------------------------------------------------|

G|----------------------------------------------------------------|
D|3---3-------3---3---3-------6-------6-------6-------5-----------|
A|------------------------------------------------------------5---|
E|----------------------------------------------------------------|

G|----------------------------------------------------------------|
D|3-----------3---3-----------3---2-----------2---2---------------|
A|----------------------------------------------------------------|
E|----------------------------------------------------------------|

G|----------------------------------------------------------------|
D|6-----------6---5-----------5---3-----------3-------------------|
A|------------------------------------------------6-----------6---|
E|----------------------------------------------------------------|

G|----------------------------------------------------------------|
D|--------------------------------7---7---7-------------------2---|
A|4---4---4-----------3---4---------------------------3---4-------|
E|------------5---------------5---------------5-------------------|

1:03

G|----------------------------------------------------------------|
D|----------------------------------------------------------------|
A|5-----------5---5-----------5---5-----------5---5-----------5---|
E|----------------------------------------------------------------|

G|--------------------5-------10----------------------------------|
D|3-----------7---------------------------------------------------|
A|----------------------------------------------------------------|
E|--------------------------------5-----------5---5-----------5---|

G|----------------------------------------------------------------|
D|----------------------------------------------------------------|
A|5-----------5---5-----------5---5-----------5---5-----------5---|
E|----------------------------------------------------------------|

G|--------------------5-------10--------------------------------------------------|
D|3-----------7-------------------------------------------7---6-5-----4-----4-----|
A|--------------------------------------------7---------7-------------------------|
E|--------------------------------5---------5-------------------------------------|

1:22

G|----------------------------------------------------------------|
D|----------------------------------------------------------------|
A|5-----------5---5-----------5---5-----------5---5-----------5---|
E|----------------------------------------------------------------|

G|--------------------5-------10----------------------------------|
D|3-----------7---------------------------------------------------|
A|------------------------------------------------7---------------|
E|--------------------------------5-----------5-------------------|

G|----------------------------------------------------------------|
D|----------------------------------------------------------------|
A|5-----------5---5-----------5---5-----------5---5-----------5---|
E|----------------------------------------------------------------|

G|----------------------------------------------------------------|
D|7-----------7---7---5---------------------------7-------7---5---|
A|----------------------------4-----------------------7-----------|
E|--------------------------------5-----------5-------------------|

G|----------------------------------------------------------------|
D|4---4-------4---4---4-------4---7---7---7---7---------------2---|
A|--------------------------------------------------------3-------|
E|----------------------------------------------------5-----------|

1:42

G|--------------------------------------------8-------------------|
D|3---3-------3-------3-------3---3---3---------------8-------5---|
A|----------------------------------------------------------------|
E|----------------------------------------------------------------|

G|----------------------------------------------------------------|
D|3---3-------3---3---3-------6-------6-------6-------5-----------|
A|------------------------------------------------------------5---|
E|----------------------------------------------------------------|

G|----------------------------------------------------------------|
D|3-----------3---3-----------3---2-----------2---2-----------2---|
A|----------------------------------------------------------------|
E|----------------------------------------------------------------|

G|----------------------------------------------------------------|
D|6-----------6---5-----------5---3-----------3-------------------|
A|------------------------------------------------6-----------6---|
E|----------------------------------------------------------------|

G|----------------------------------------------------------------|
D|----------------------------------------------------------------|
A|4---4---4-----------3---4-------------------------------2---5---|
E|------------5---------------5---3---3---3---3-------5-----------|

2:01

G|------------5-------------------------------3-------2-----------|
D|--------------------5-----------------------------------3-------|
A|3---3---3-------------------3---1---1---1-------------------5---|
E|----------------------------------------------------------------|

G|------------5---------------------------------------------------|
D|--------------------5-------------------------------------------|
A|3---3---3-------------------3---1---1---1-----------------------|
E|----------------------------------------------------------------|

G|------------5-------------------------------3-------------------|
D|--------------------5---2-------------------------------3-------|
A|3---3---3-------------------5---1---1---1-----------------------|
E|----------------------------------------------------------------|

G|------------------------------------------------------------------------------|
D|7---------------7-5---------------5-3-----------------2-----------------------|
A|------------------------------------------------------------------------------|
E|------------------------------------------------------------------------------|

G|----------------------------------------------------------------|
D|----------------------------------------------------------------|
A|7-\-------------------------------------------------------------|
E|------------------------5---------------------------------------|
Добавлено: 14.04.2015
Другие материалы по этой песне:
  • Аккорды и текст

Страница создана 14.04.2015
http://primanota.ru/the-cowsills/mister-flynn-chords.htm
Привет, Гость.
Предлагаем пройти революционный курс по гитаре.
Подарок от PrimaNota.Ru, забирай!