PrimaNota.ru - самый крупный в мире бесплатный архив песенных текстов, аккордов, табулатур и нот


The Cowsills - Meet Me At The Wishing Well - бас-таба, видео

Регистрация Запомнить меня
Войти через:  Facebook Google Twitter Vk Yandex Mail.ru

The Cowsills - Meet Me At The Wishing Well - бас-таба, видео

Печатать
Просмотров: 108
Уроки эстрадного вокала в Санкт-Петербурге
Tabbed by: 6METAL6BASSIST6
E-mail: petergriffinav@gmail.com

Tuning: EADG

0:05

G|5---5-------5---5---5-------5-----------------------------------|
D|--------------------------------3---3-------3---3---3-------3---| x2
A|----------------------------------------------------------------|
E|----------------------------------------------------------------|

G|5---5-------5---5---5-------5-------------------------------------|
D|--------------------------------3---3-------3---3---3-------------|
A|------------------------------------------------------------3-----|
E|------------------------------------------------------------------|

0:21

G|------------------------------------------------------------------------------------------------|
D|3-----------------3-----3-----------------------3-----------------3-----3-----------3-----------|
A|------------------------------------------------------------------------------------------------|
E|------------------------------------------------------------------------------------------------|

G|------------------------------------------------------------------------------------------------|
D|5-----------------5-----------------------------3-----------------3-----3-----------------------|
A|------------------------1-----------1-----------------------------------------3-----------3-----|
E|------------------------------------------------------------------------------------------------|

G|------------------------------------------------------------------------------------------------|
D|3-----------------3-----3-----------------------3-----------------3-----3-----------3-----------|
A|------------------------------------------------------------------------------------------------|
E|------------------------------------------------------------------------------------------------|

G|------------------------------------------------------------------------------------------------|
D|5-----------------5-----------------------------3-----3-----------3-----------------------------|
A|------------------------4-----------4-----------------------------------3-----3---------3-3-----|
E|------------------------------------------------------------------------------------------------|

0:44

G|------------------------------------------------------------------------------------------------|
D|3-----------------3-----3-----------------------3-----------------3-----3-----3-----------------|
A|------------------------------------------------------------------------------------------------|
E|------------------------------------------------------------------------------------------------|

G|------------------------------------------------------------------------------------------------|
D|5-----------------5-----------------------------3-----------------3-----3-----------------------|
A|------------------------1-----------1-----------------------------------------3---------3-3-----|
E|------------------------------------------------------------------------------------------------|

G|------------------------------------------------------------------------------------------------|
D|3-----------------3-----3-----------------------3-----------------3-----3-----------3-----------|
A|------------------------------------------------------------------------------------------------|
E|------------------------------------------------------------------------------------------------|

G|------------------------------------------------------------------------------2-----0-----------|
D|5-----------------5-----------------------------3-----3-----------3-----3-----------------3-----|
A|------------------------4-----------4-----------------------------------------------------------|
E|------------------------------------------------------------------------------------------------|

1:05

G|------------------------------------------------------------------------------------------------------------|
D|2-----2-----------------2-----2-----------------------------2-----2-----------------2-----2-----------------|
A|------------------2-----------------------------------------------------------2---------------------2-------|
E|------------------------------------------------------------------------------------------------------0-----|

G|------------------------------------------1-----2-----5-----------4-----------2-----------------|
D|2-----2-----------------2-----2---------2-------------------------------------------------2---0-|
A|----------------2-2-----------------------------------------------------------------------------|
E|------------------------------------------------------------------------------------------------|

G|------------------------------------------------------------------------------------------------|
D|------------------------------------------0-----3-----3---------------0-3---0-3-----------------|
A|3-----3-----------------3-----3-----------------------------------0-----------------------3-----|
E|------------------3-----------------------------------------------------------------------------|

G|------------------------------------------------5-----------------------5-----------------------|
D|5-----5-----5-----5-----5-----5-----5-----5-----------------------------------------------------|
A|------------------------------------------------------3-----3-----3-----------------------------|
E|------------------------------------------------------------------------------------------------|

1:27

G|------------------------------------------------------------------------------------------------|
D|3-----------------3-----3-----------------------3-----------------3-----3-----------------------|
A|------------------------------------------------------------------------------------------------|
E|------------------------------------------------------------------------------------------------|

G|------------------------------------------------------------------------------------------------|
D|5-----------------5-----------------------------3-----------------3-----3-----3-----------------|
A|------------------------1-----------1-----------------------------------------------------3-----|
E|------------------------------------------------------------------------------------------------|

G|------------------------------------------------------------------------------------------------|
D|3-----------------3-----3-----------------------3-----------------3-----3-----------3-----------|
A|------------------------------------------------------------------------------------------------|
E|------------------------------------------------------------------------------------------------|

G|----------------------------------------------------0-------2-------2---0-------|
D|5-----------------5-----------------------------3---------------------------3---|
A|------------------------4-----------4-------------------------------------------|
E|--------------------------------------------------------------------------------|

1:49

G|--------------------------------2-----2-2-------2-----2-2-0-----|
D|2-----2-2-------2-----2-2-------------------------------------3-|
A|----------------------------------------------------------------|
E|----------------------------------------------------------------|

G|--------------------------------2-----2-2-------2-----2-2-------|
D|2-----2-2-------2-----2-2---------------------------------2-2-0-|
A|----------------------------------------------------------------|
E|----------------------------------------------------------------|

G|----------------------------------------------------------------|
D|--------------------------0---2-3-----3-3-------3-----3-3-3---0-|
A|3-----3-3-------3-----3-3---------------------------------------|
E|----------------------------------------------------------------|

G|----------------------------2-4-5-------------------------------------------------------|
D|5-----5-5-5---5-5-----5-5-5-------------------------------------------------------------|
A|----------------------------------------------------------------------------------------|
E|----------------------------------------------------------------------------------------|

2:13

G|------------------------------------------------------------------------------------------------|
D|3-----------------3-----3-----------------------3-----------------3-----3-----------3-----------|
A|------------------------------------------------------------------------------------------------|
E|------------------------------------------------------------------------------------------------|

G|------------------------------------------------------------------------------------------------|
D|5-----------------5-----------------------------3-----------------3-----3-----------------------|
A|------------------------1-----------1-----------------------------------------3-----------3-----|
E|------------------------------------------------------------------------------------------------|

G|------------------------------------------------------------------------------------------------|
D|3-----------------3-----3-----------------------3-----------------3-----3-----------3-----------|
A|------------------------------------------------------------------------------------------------|
E|------------------------------------------------------------------------------------------------|

G|------------------------------------------------------------------------------------|
D|5-----------------------------------------------------------------------------------|
A|------------------------------------4-----------------------------------------------|
E|------------------------------------------------------------------------------------|

G|------------------------------------------------------------------------------------------------|
D|------------------------------------------------------------------------------------------------|
A|4-----------------------------------4-----------4-----------------------1-----------------------|
E|------------------------------------------------------------------------------------------------|

G|------------------------------------------------------------------------------------------------|
D|------------------------------------------------------------------------------------------------|
A|------------1-----------------------------1-----------------------------------------------------|
E|1-----------------------------------------------------------------1-----------------------------|
Добавлено: 15.06.2016
Другие материалы по этой песне:
  • Аккорды и текст

Страница создана 15.06.2016
http://primanota.ru/the-cowsills/meet-me-at-wishing-well-chords.htm
Привет, Гость.
Предлагаем пройти революционный курс по гитаре.
Подарок от PrimaNota.Ru, забирай!