PrimaNota.ru - самый крупный в мире бесплатный архив песенных текстов, аккордов, табулатур и нот


The Cowsills - Dreams Of Linda - бас-таба, видео

Регистрация Запомнить меня
Войти через:  Facebook Google Twitter Vk Yandex Mail.ru

The Cowsills - Dreams Of Linda - бас-таба, видео

Печатать
Просмотров: 84
Tabbed by: 6METAL6BASSIST6
E-mail: petergriffinav@gmail.com

Tuning: EADG

0:07

G|----------------------------------------------------------------|
D|3-----------------------3-----------------------------------3---|
A|----------------------------3---1---------------1---3---4-------|
E|----------------------------------------------------------------|

G|----------------------------------------------------------------|
D|--------------------3---5---------------6-----------------------|
A|6---------------6-----------6-------------------6---------------|
E|------------6-------------------4-----------------------4-------|

G|----------------------------------------------------------------|
D|----------------------------------------------------2---3---5---|
A|----------------------------------------2---3---5---------------|
E|3-------3-------3-------3-------3---5---------------------------|

G|--------5-\-------------5-\-------------------------------------|
D|----------------------------------------------------------------|
A|3---------------3---------------3-------3-------3---3---3---3---|
E|----------------------------------------------------------------|

G|------------2---3---3-------2---------------2---3---3-------2---|
D|3-------------------------------3-------------------------------|
A|----------------------------------------------------------------|
E|----------------------------------------------------------------|

G|------------2---3---3-------2-------------------7---5-----------|
D|3-------------------------------3-----------------------7---6---|
A|----------------------------------------------------------------|
E|----------------------------------------------------------------|

Repeat from the start




1:07

G|----------------------------------------------------------------|
D|5-----------5---5---5-------5---3-----------3---3---3-------3---|
A|----------------------------------------------------------------|
E|----------------------------------------------------------------|

G|----------------------------------------------------5-----------|
D|------------------------------------------------5h7-----7-------|
A|6-----------6---6---6-------6---5-----------5---------------5---|
E|----------------------------------------------------------------|

G|----------------------------------------------------------------|
D|5-----------5---5---5-------5---3-----------3---3---3-------3---|
A|----------------------------------------------------------------|
E|----------------------------------------------------------------|

G|----------------------------------------------------------------|
D|----------------------------------------------------------------|
A|6-----------6---6---6-------6---5-----------5---5---5-------5---|
E|----------------------------------------------------------------|

G|--------------------------------|
D|--------------------------------|
A|5-----------5---5---5---5---5---|
E|--------------------------------|

1:28

G|----------------------------------------------------------------|
D|3-----------------------3-----------------------------------3---|
A|----------------------------3---1---------------1---3---4-------|
E|----------------------------------------------------------------|

G|----------------------------------------------------------------|
D|--------------------3---5---------------6-----------------------|
A|6---------------6-----------6-------------------6---------------|
E|------------6-------------------4-----------------------4-------|

G|----------------------------------------------------------------|
D|----------------------------------------------------2---3---5---|
A|----------------------------------------2---3---5---------------|
E|3-------3-------3-------3-------3---5---------------------------|

G|--------5-\-------------5-\-------------------------------------|
D|----------------------------------------------------------------|
A|3---------------3---------------3-------3-------3---3---3---3---|
E|----------------------------------------------------------------|

G|------------2---3---3-------2---------------2---3---3-------2---|
D|3-------------------------------3-------------------------------|
A|----------------------------------------------------------------|
E|----------------------------------------------------------------|

G|------------2---3---3-------2-----------------------------------|
D|3-------------------------------3-----------3-------------------|
A|----------------------------------------------------------------|
E|------------------------------------------------5---5---5---5---|

1:57

G|----------------------------------------------------------------|
D|------------4---5---5-------4---------------4---5---5-------4---|
A|5-------------------------------5-------------------------------|
E|----------------------------------------------------------------|

G|----------------------------------------------------------------|
D|------------4---5---5-------4-----------------------------------|
A|5-------------------------------5-----------5-------------------|
E|------------------------------------------------2---2---2---2---|

G|----------------------------------------------------------------|
D|------------1---2---2-------1---------------1---2---2-------1---|
A|2-------------------------------2-------------------------------|
E|----------------------------------------------------------------|

G|----------------------------------------------------------------|
D|------------1---2---2-------1-------------------1---1---3---5---|
A|2-------------------------------2-----------2-------------------|
E|----------------------------------------------------------------|

G|------------5---6---6-------5---------------5---6---6-------5---|
D|6-------------------------------6-------------------------------|
A|----------------------------------------------------------------|
E|----------------------------------------------------------------|

G|------------5---6---6-------5-----------------------------------|
D|6-------------------------------6-----------6---------------2---|
A|------------------------------------------------3---3---5-------|
E|----------------------------------------------------------------|

G|------------2---3---3-------2---------------2---3---3-------2---|
D|3-------------------------------3-------------------------------| x3 until fade out.
A|----------------------------------------------------------------|
E|----------------------------------------------------------------|
Добавлено: 14.04.2015
Другие материалы по этой песне:
  • Аккорды и текст

Страница создана 14.04.2015
http://primanota.ru/the-cowsills/dreams-of-linda-chords.htm
Привет, Гость.
Предлагаем пройти революционный курс по гитаре.
Подарок от PrimaNota.Ru, забирай!