PrimaNota.ru - самый крупный в мире бесплатный архив песенных текстов, аккордов, табулатур и нот


The Courteeners - Sunflower - таба, видео

Регистрация Запомнить меня
Войти через:  Facebook Google Twitter Vk Yandex Mail.ru

The Courteeners - Sunflower - таба, видео

Печатать
Просмотров: 102
Artist: The Courteeners
Song: Sunflower
Album: How Good It Was B-Side (2014)

Tabbed By: Andy Gillett

Capo On 7

Tuning: E Standard

Okay the intro consists of five chords ... There's Fmaj7*, Am*, Am, a C, and C*.
The * in this case just means two frets up

So I find it easiest to use my main three fingers in these positions
then use my little finger for the rest...


    Fmaj7*       Am*          Am           C            C*
e|--0------------0------------0------------0------------0--|
B|--3------------3------------1------------1------------3--|
G|--4------------4------------2------------0------------0--|
D|--5------------4------------2------------2------------4--|
A|--x------------x------------x------------3------------5--|
E|--x------------x------------x------------x------------x--|


e|-----0----0-0-0-----------------0----0-0-0--------------------------------|
B|-----3----3-3-3--5--3-----3-----3----3-3-3--5--3--------------------------|
G|-----4----4-4-4--------5--------4----4-4-4--------5--4\2------------------|
D|--5--------------------------4--------------------------------------------|
A|--------------------------------------------------------------------------|
E|--------------------------------------------------------------------------|

e|-----0----0-0-0---------------0----0-0-0--/---0----0-0-0------------------|
B|-----1----1-1-1--1h3----------1----1-1-1--/---3----3-3-3------------------|
G|-----2----2-2-2------2--------0----0-0-0--/---0----0-0-0------------------|
D|--2---------------------2-----2----2-2-2--/---4----4-4-4------------------|
A|---------------------------3------------------5----5-5-5------------------|
E|--------------------------------------------------------------------------|

If you want me to tab the chords, let me know :)


************************************

| /   slide up
| \   slide down
| h   hammer-on
| p   pull-off
| ~   vibrato
| +   harmonic
| x   Mute note
| b   Bend
| pb  Pre-bend
| br  Bend release
| pbr Pre-bend release
| brb Bend release bend

************************************
Добавлено: 14.05.2015
Другие материалы по этой песне:
  • Аккорды и текст

Страница создана 14.05.2015
http://primanota.ru/the-courteeners/sunflower-chords.htm
Привет, Гость.
Предлагаем пройти революционный курс по гитаре.
Подарок от PrimaNota.Ru, забирай!