PrimaNota.ru - самый крупный в мире бесплатный архив песенных текстов, аккордов, табулатур и нот


The Courteeners - Not One Could I Give - таба, видео

Регистрация Запомнить меня
Войти через:  Facebook Google Twitter Vk Yandex Mail.ru

The Courteeners - Not One Could I Give - таба, видео

Печатать
Просмотров: 127
Уроки эстрадного вокала в Санкт-Петербурге
-----------------------------------------------------------------------------
-------------------------------THE COURTEENERS-------------------------------
-----------------------------NOT ONE COULD I GIVE----------------------------
-----------------------------------------------------------------------------
Standard Tuning
Easy song to play, Liam Fray EP, 2007. Acoustic.

Verse:
e|-------------------------------------------------------------------------|
B|-------------------------------------------------------------------------|
G|-------------------------------------------------------------------------|
D|-------------------------------------------------------------------------|
A|---------------------------------5-88-7-5-----------5-8888888------------|
E|----5-----88-7-5------------5-8-5----------------------------5-----------|

Now she's seeing this extremely well-mannered
Good looking chap
He's got the tendency to walk around
And kick your face in and that

e|-------------------------------------------------------------------------|
B|-------------------------------------------------------------------------|
G|-------------------------------------------------------------------------|
D|-------------------------------------------------------------------------|
A|---------------------------------5-88-7-5-----------5-8888888------------|
E|----5-----88-7-5------------5-8-5----------------------------5-----------|

He wears his trainers and some very interesting jeans
Some lovely tops
Only last week did we hear those nasty rumours
About him shoplifting shops

(Chorus switches to power chords, using same riff)
Chorus:
A5                                 C5-B5-A5
Well that's just me and I'm probably biased
A5                            A5-C5-A5
And I say oh no I'm not one to try her
D5                                   F5-E5-D5
I hope they're happy and ever after they live
D5                                       D5-F5-A5
Actually no that's rubbish and not one could I give

Verse 2 (same riff):

Now look listen it is not like he's my friend
In fact I don't hardly know him
But I know him well enough to tell you that his highlights were bad
I mean they're fucking glowing.

So I said look listen can you please turn away
Cos my eyes are getting dead sore
The truth be told between you and me
I just couldn't take anymore

Chorus to finish.
Добавлено: 30.11.2013
Другие материалы по этой песне:
  • Аккорды и текст

Страница создана 30.11.2013
http://primanota.ru/the-courteeners/not-one-could-i-give-chords.htm
Привет, Гость.
Предлагаем пройти революционный курс по гитаре.
Подарок от PrimaNota.Ru, забирай!