PrimaNota.ru - самый крупный в мире бесплатный архив песенных текстов, аккордов, табулатур и нот


The Courteeners - Marquee - таба, видео

Регистрация Запомнить меня
Войти через:  Facebook Google Twitter Vk Yandex Mail.ru

The Courteeners - Marquee - таба, видео

Печатать
Просмотров: 104
Chords: Eb, Cm, G, G# Bb

Or Capo 1st fret: D,Bm,F#, G, A

Intro

---13-13--11----13-13-11---------|
-------------11----------11-11---|
---------------------------------|
---------------------------------|  x2
---------------------------------|
---------------------------------|

-18-18--15----------15----------15-15----------|
----------18-16--18----18-16-18-------18-16-18-|
-----------------------------------------------|
-----------------------------------------------|
-----------------------------------------------|
-----------------------------------------------|

Eb                Cm   G          Cm
Stay up late and think of where you might be
          Eb                Cm                G         Cm
I can't sleep, I've got the image of you and him in the marquee
           Eb                     Cm
He made you smile when did I stop doing that
       G               Cm
Was it happening for a while
                 Eb              Cm                   G            G#
You should have said instead I'm lying here wrestling demons in my bed
G#                 Bb
Round and round we go
               G#  G           Bb
Demons in my bed   oooohhhhhhh ohhhhhhh

Eb
I dont mean to be so rude
Cm
but next time you think you might not
 Eb      Cm
love someone
           G#                 Bb               Eb
don't you think it's best to tell them earlier on

Was he was one of those who you swore was just a friend?
And did he use to send those messages through the night?
Your screen would flash and in tone so brash
You'd say it's the time zone and you're working late
you're working too hard, you're working us to the ground
And I don't don't feel too sound
Is he better pound for pound
You'll never know

Eb
I dont mean to be so rude
Cm
but next time you think you might not
Eb    Cm
love someone
           G#                 Bb               Eb
don't you think it's best to tell them earlier on


Eb, Cm, Eb, Cm, G#, Bb, Eb

or

g-s13s12-12-s8-10-s12-s15s10

g-s13s12-12-s8-10-s12-s15s10-
d-----------------------------12-15

 

b
I dont mean to be so rude
Cm
but next time you think you might not
Eb    Cm
love someone
           G#                 Bb               Eb
don't you think it's best to tell them earlier on

Outro

---13-13--11----13-13-11---------|
-------------11----------11-11---|
---------------------------------|
---------------------------------|  x2
---------------------------------|
---------------------------------|

-18-18--15----------15----------15-15----------|
----------18-16--18----18-16-18-------18-16-18-|
-----------------------------------------------|
-----------------------------------------------|
-----------------------------------------------|
-----------------------------------------------|
Добавлено: 30.08.2013
Другие материалы по этой песне:
  • Аккорды и текст

Страница создана 19.08.2013
http://primanota.ru/the-courteeners/marquee-chords.htm
Привет, Гость.
Предлагаем пройти революционный курс по гитаре.
Подарок от PrimaNota.Ru, забирай!