PrimaNota.ru - самый крупный в мире бесплатный архив песенных текстов, аккордов, табулатур и нот


The Courteeners - Marquee - аккорды и текст, таба, видео

Регистрация Запомнить меня
Войти через:  Facebook Google Twitter Vk Yandex Mail.ru

The Courteeners - Marquee - аккорды и текст, таба, видео

Печатать
Просмотров: 156
Уроки эстрадного вокала в Санкт-Петербурге
Авторы: Liam Fray
Авторы текста: Liam Fray
Marquee
The Courteeners
[Intro]

C G Am F

e|---13-13--11----13-13-11---------|
B|-------------11----------11-11---|
G|---------------------------------|
D|---------------------------------|  x2
A|---------------------------------|
E|---------------------------------|

e|18-18--15----------15----------15-15-----------|
B|----------18-16--18----18-16-18-------18-16-18-|
G|-----------------------------------------------|
D|-----------------------------------------------|
A|-----------------------------------------------|
E|-----------------------------------------------|


[Verse 1]

Am                   C
Stay up late and think
          E        Am
Of where you might be
                    C                    E                  Am
I can't sleep I've got the image of you and him in the marquee
                                   C
He made you smile when did I stop doing that?
E                          Am
Was it happening for a while?
                             C                              E            Am
You should've of just said instead I'm lying here wresting demons in my bed
C                     E
Around and round we go
              Am
Demons in my bed
E     G
Mmmmmm


[Chorus]

C
I don't mean to be so rude
     Am                                C
But next time you think you might not love someone
           G                                    C
Don't you think it's best to tell them earlier on


[Verse 2]

Am                    C             E              Am
Was he one of those whom you swore was just a friend
                   C                               E
And did he used to send those messages through the night
Am                 C                  
Your screen would flash and in tone so brash
E                        Am
You'd say it's the time zone
                    C                        
And you're working late you're working too hard
E                           Am 
You're working us to the ground]
                         C
And I don't feel too sound
        E                Am
Is he better pound for pound?
              E   G
You'll never know


[Chorus]

C
I don't mean to be so rude
     Am                                C
But next time you think you might not love someone
           G                                    C
Don't you think it's best to tell them earlier on


[Interlude]

C G Am F

e|---13-13--11----13-13-11---------|
B|-------------11----------11-11---|
G|---------------------------------|
D|---------------------------------|  x2
A|---------------------------------|
E|---------------------------------|

e|18-18--15----------15----------15-15-----------|
B|----------18-16--18----18-16-18-------18-16-18-|
G|-----------------------------------------------|
D|-----------------------------------------------|
A|-----------------------------------------------|
E|-----------------------------------------------|


[Chorus]

C
I don't mean to be so rude
     Am                                C
But next time you think you might not love someone
           G                                    C
Don't you think it's best to tell them earlier on


[Interlude]

C G Am F

e|---13-13--11----13-13-11---------|
B|-------------11----------11-11---|
G|---------------------------------|
D|---------------------------------|  x2
A|---------------------------------|
E|---------------------------------|

e|18-18--15----------15----------15-15-----------|
B|----------18-16--18----18-16-18-------18-16-18-|
G|-----------------------------------------------|
D|-----------------------------------------------|
A|-----------------------------------------------|
E|-----------------------------------------------|
Добавлено: 09.08.2017
Другие материалы по этой песне:
  • Аккорды и текст

Страница создана 19.08.2013
http://primanota.ru/the-courteeners/marquee-chords.htm
Привет, Гость.
Предлагаем пройти революционный курс по гитаре.
Подарок от PrimaNota.Ru, забирай!