PrimaNota.ru - самый крупный в мире бесплатный архив песенных текстов, аккордов, табулатур и нот


The Corners - Against It - таба, видео

Регистрация Запомнить меня
Войти через:  Facebook Google Twitter Vk Yandex Mail.ru

The Corners - Against It - таба, видео

Печатать
Просмотров: 108
-------------------------------------------------------------------------------
                             Against It (Acoustic) - Corners
-------------------------------------------------------------------------------
Tabbed by: Lichen Black
E-mail: james.roger295@yahoo.com

~This is my acoustic version made to sound more like the album version (simulates bass notes as well)

Tuning: Standard

INTRO:

e|-----0-------------------------------|
B|-------3-0---0-1-0---0---0-----------|
G|-----------------------2-------------| x2
D|-------------------------------------|
A|------------------000-0-0------------|
E|--000-0-0-333-3-3---------33333333---|

e|-----------------------0--|
B|-----------------------0--
G|--55-4-2---------------0--| 
D|--55-4-2-5-7-5-7-5-2---2--|
A|--33-2-0-5-7-5-7-5-2---2--|
E|---------3-5-3-5-3-0---0--|

e|-----------------------12--|
B|-----------------------12--
G|--55-4-2---------------12--| 
D|--55-4-2-5-7-5-7-5-2---12--|
A|--33-2-0-5-7-5-7-5-2-------|
E|---------3-5-3-5-3-0-------|

e|-----------------------15--|
B|-----------------------15--
G|--55-4-2---------------15--| 
D|--55-4-2-5-7-5-7-5-2---15--|
A|--33-2-0-5-7-5-7-5-2-------|
E|---------3-5-3-5-3-0-------|

e|-----------------------|
B|-----------------------
G|--55-4-2---------------| 
D|--55-4-2-5-7-5-7-5-2---|
A|--33-2-0-5-7-5-7-5-2---|
E|---------3-5-3-5-3-0---|

VERSE

e|-----0-------------------------------|
B|-------3-0---0-1-0---0---0-----------|
G|-----------------------2-------------| x2
D|-------------------------------------|
A|------------------000-0-0------------|
E|--000-0-0-333-3-3---------33333333---|

e|-----0-3-5---5-6-7---7-6-5------------|
B|--------------------------------------|
G|--------------------------------------|
D|--------------------------------------|
A|--------------------------------------|
E|--000-0-0-333-3-3-555-5-5-333333333---|

e|-----0-------------------------------|
B|-------3-0---0-1-0---0---0-----------|
G|-----------------------2-------------|
D|-------------------------------------|
A|------------------000-0-0------------|
E|--000-0-0-333-3-3---------33333333---|

CHORUS (but no singing)

e|-----------------------12--|
B|-----------------------12--
G|--55-4-2---------------12--| 
D|--55-4-2-5-7-5-7-5-2---12--|
A|--33-2-0-5-7-5-7-5-2-------|
E|---------3-5-3-5-3-0-------|

e|-----------------------15--|
B|-----------------------15--
G|--55-4-2---------------15--| 
D|--55-4-2-5-7-5-7-5-2---15--|
A|--33-2-0-5-7-5-7-5-2-------|
E|---------3-5-3-5-3-0-------|

e|----------------------3-5p0-55/3-|
B|---------------------------------
G|--55-4-2-------------------------| 
D|--55-4-2-5-7-5-7-5-2-------------|
A|--33-2-0-5-7-5-7-5-2-------------|
E|---------3-5-3-5-3-0-------------|

e|-----------------------|
B|-----------------------
G|--55-4-2---------------| 
D|--55-4-2-5-7-5-7-5-2---|
A|--33-2-0-5-7-5-7-5-2---|
E|---------3-5-3-5-3-0---|

VERSE:

e|-----0-------------------------------|
B|-------3-0---0-1-0---0---0-----------|
G|-----------------------2-------------| x2
D|-------------------------------------|
A|------------------000-0-0------------|
E|--000-0-0-333-3-3---------33333333---|

e|-----0-3-5---5-6-7---7-6-5-------3---|
B|------------------------------535-5--|
G|-------------------------------------|
D|-------------------------------------|
A|-------------------------------------|
E|--000-0-0-333-3-3-555-5-5-333--------|

e|-----0-------------------------------|
B|-------3-0---0-1-0---0---0-----------|
G|-----------------------2-------------|
D|-------------------------------------|
A|------------------000-0-0------------|
E|--000-0-0-333-3-3----------33333333--|

CHORUS:

e|-----------------------0--|
B|-----------------------0--
G|--55-4-2---------------0--| 
D|--55-4-2-5-7-5-7-5-2---2--|
A|--33-2-0-5-7-5-7-5-2---2--|
E|---------3-5-3-5-3-0---0--|

e|-------------------------3555-3---|
B|-----------------------35------5/-
G|--55-4-2--------------------------| 
D|--55-4-2-5-7-5-7-5-2--------------|
A|--33-2-0-5-7-5-7-5-2--------------|
E|---------3-5-3-5-3-0--------------|

e|----------------------12-1515-12-1012-|
B|----------------------12-1515-12-1012-
G|--55-4-2------------------------------| 
D|--55-4-2-5-7-5-7-5-2------------------|
A|--33-2-0-5-7-5-7-5-2------------------|
E|---------3-5-3-5-3-0------------------|

e|------------------------------|
B|------------------------------
G|--5-5---4--2------------------| 
D|--5-5---4--2--5--7--5--7---5--|
A|--3-3---2--0--5--7--5--7---5--|
E|--------------3--5--3--5---3--|

  Why you gotta be so against it.
 
Just rock out for the rest...

************************************

| /   slide up
| \   slide down
| h   hammer-on
| p   pull-off
| ~   vibrato
| +   harmonic
| x   Mute note
| b   Bend
| pb  Pre-bend
| br  Bend release
| pbr Pre-bend release
| brb Bend release bend

************************************
Добавлено: 27.06.2016
Вам также может быть интересно:
Другие материалы по этой песне:
  • Аккорды и текст

Страница создана 27.06.2016
http://primanota.ru/the-corners/against-it-chords.htm
Привет, Гость.
Предлагаем пройти революционный курс по гитаре.
Подарок от PrimaNota.Ru, забирай!