PrimaNota.ru - самый крупный в мире бесплатный архив песенных текстов, аккордов, табулатур и нот


The Copyrights - Talkbomb - таба, видео

Регистрация Запомнить меня
Войти через:  Facebook Google Twitter Vk Yandex Mail.ru

The Copyrights - Talkbomb - таба, видео

Печатать
Просмотров: 69
Intro/Bridge
e-----------------------------------|   
B-----------------------------------|     
G--14-------------------------------|    
D--14-------------------------------|  
A--12-------------------------------|    
E-----------------------------------|

Verse
       2x                 2x
e-------------|---------------------------|   
B-------------|---------------------------|     
G--7--------7-|--7--6--4-----7--6--7/9\7--|    
D--7--4--5--7-|--x--x--x--7--x--x--x/x\x--|  
A--5--4--5--5-|--5--4--2--x--5--4--5/7\5--|    
E-----2--3----|-----------5---------------|
p.m. 2nd verse|

Chorus
e-------------------------------------------------------|   
B-------------------------------------------------------|     
G--7-------------------------------7-----------7--------|    
D--7(6x)--5-----7------5------7----7(5x)-7-----7(5x)----|  
A--5------5(6x)-7(12x)-5(12x)-7(1x)5-----7(1x)-5--------|    
E---------3-----5------3------5----------5--------------|

Добавлено: 23.08.2013
Другие материалы по этой песне:
  • Аккорды и текст

Страница создана 23.08.2013
http://primanota.ru/the-copyrights/talkbomb-chords.htm
Привет, Гость.
Предлагаем пройти революционный курс по гитаре.
Подарок от PrimaNota.Ru, забирай!