PrimaNota.ru - самый крупный в мире бесплатный архив песенных текстов, аккордов, табулатур и нот


The Contortionist - Exoplanet I Egress - таба, видео

Регистрация Запомнить меня
Войти через:  Facebook Google Twitter Vk Yandex Mail.ru

The Contortionist - Exoplanet I Egress - таба, видео

Печатать
Просмотров: 106
Pretty easy song (the intro is, anyways).
Just listen to the song for timing if necessary.
This is in A# standard--that's 3 steps below standard.

This is that first riff.
It repeats a lot.
A#|-----------12---|-------------0-----------0|
F |------13--------|-----------------------3--|
C#|:16------------:|----------10---------5----|
G#|----------------|----5-7-9--------2-3------|
D#|----------------|7-8------------0----------|
A#|----------------|--------------------------|

A#|12-8-----------9----4----9----|171717-16-------171717-16-------171717-16--------------------|
F |-----10-9-9----10---5----10---|---------17--------------17--------------17-17/19--17--------|
C#|----------9----11---6----11---|-----------18--------------18-------------------------19-18--|
G#|----------11---12---7----12---|-------------------------------------------------------------|
D#|------------------------------|-------------------------------------------------------------|
A#|------------------------------|-------------------------------------------------------------|

A#|171717-16-------171717-16-------171717-16----------21-19^21v19--|
F |---------17--------------17--------------17-17/19---------------|
C#|-----------18--------------18-----------------------------------|
G#|----------------------------------------------------------------|
D#|----------------------------------------------------------------|
A#|----------------------------------------------------------------|

A#|171717-16-------171717-16-------171717-16--------------------|
F |---------17--------------17--------------17-17/19--17--------|
C#|-----------18--------------18-------------------------19-18--|
G#|-------------------------------------------------------------|
D#|-------------------------------------------------------------|
A#|-------------------------------------------------------------|

A#|171717-16-------171717-16-------171717-16----------21-19--|
F |---------17--------------17--------------17-17/19---------|
C#|-----------18--------------18-----------------------------|
G#|----------------------------------------------------------|
D#|----------------------------------------------------------|
A#|----------------------------------------------------------|

A#|17-16----16^17v16--16--------15/16----16^17v16--16--------|
F |-----17----------17---17----------17----------17---17-----|
C#|------------------------18---------------------------18---|
G#|----------------------------------------------------------|
D#|----------------------------------------------------------|
A#|----------------------------------------------------------|

This is all I felt like tabbing.
This should be a good start on the song though.
Добавлено: 21.10.2013
Другие материалы по этой песне:

Страница создана 27.07.2013
http://primanota.ru/the-contortionist/exoplanet-i-egress-chords.htm
Привет, Гость.
Предлагаем пройти революционный курс по гитаре.
Подарок от PrimaNota.Ru, забирай!