PrimaNota.ru - самый крупный в мире бесплатный архив песенных текстов, аккордов, табулатур и нот


The Contortionist - Anatomy Anomalies - таба, видео

Регистрация Запомнить меня
Войти через:  Facebook Google Twitter Vk Yandex Mail.ru

The Contortionist - Anatomy Anomalies - таба, видео

Печатать
Просмотров: 117
Уроки эстрадного вокала в Санкт-Петербурге
I figured out a lot of key sections by listening to the song and watching live videos to 
see what they were
playing and I think I came pretty close. I am by no means a skilled musician and this is 
the very first tab I've
ever made so I apologize for formatting and other errors. Let me know what you guys 
think and lets try to figure
out the rest of the song!


Tuning: A# D# G# C# F A# D#

Intro (play clean. Robby uses a BOSS Super Chorus pedal and a Digital Delay DD-7)
-----------------------------------------|
-----------7h10h7------------------------|
---------8--------8----------------------|
-------9------------9--------------------|
--7-10----------------10-7-10------------|
-----------------------------------------|
-----------------------------------------|

One of the awesome chord riffs
-----------------------------------------------|
--0--0--0--0----0--0--0--0--0--0---0--0--------|
--0--0--0--0----0--0--0--0--0--0---0--0--------|
--2--3--2--3----8--7--8--11-7--15--12-10-------|
--3--4--3--4----6--5--6--9--5--13--10-8--------|
--3--4--3--4----4--3--4--7--3--11--8--6--------|
--1--2--1--2-----------------------------------|

First solo (play over the previous chords)
-----------------------/13--10--8b-----|
-/11--10--11--/14--10------------------|
---------------------------------------|
---------------------------------------|
---------------------------------------|
---------------------------------------|
---------------------------------------|

Second solo (I do not know the chords in the background)
-------------------------------------------------------2h4h5-t7-2h4h5-t9-7h9h10-t12p10------------------------|
-------------------------------------------/7--5--3--2--------------------------------------------------------|
-/5--7---------/7--3--5--3------------------------------------------------------------------------------------|
-------/7---4--------------------4---7------------------------------------------------------------------------|
-----------------------------------5---4----------------------------------------------------------------------|
--------------------------------------------------------------------------------------------------------------|
--------------------------------------------------------------------------------------------------------------|

Post Second Solo Verse
--------------------------------------------------------------------------------------------------------------|
--------------------------------------------------------------------------------------------------------------|
--------------------------------------------------------------------------------------------------------------|
-------------------------------------------------------------------------7-----15----12-----------4---7-------|
-----------------------------------------------------4-3-2-1-0---------5-----13----10-----4---------5---4-----|
-----------------------2/3---2/3----2---22---------2-----------4-3---3-----11-----8---------3/1---------------|
0-00-0-000-2-22-2--00-----00-----00---0------0-2-3--------------------------------------0-------2-------------|
  **   ***   **    **     **     **   *                                                 *
Добавлено: 08.07.2015
Другие материалы по этой песне:
  • Аккорды и текст

Страница создана 08.07.2015
http://primanota.ru/the-contortionist/anatomy-anomalies-chords.htm
Привет, Гость.
Предлагаем пройти революционный курс по гитаре.
Подарок от PrimaNota.Ru, забирай!