PrimaNota.ru - самый крупный в мире бесплатный архив песенных текстов, аккордов, табулатур и нот


The Constantines - Soon Enough - таба, видео

Регистрация Запомнить меня
Войти через:  Facebook Google Twitter Vk Yandex Mail.ru

The Constantines - Soon Enough - таба, видео

Печатать
Просмотров: 155
Уроки эстрадного вокала в Санкт-Петербурге
-------------------------------------------------------------------------------
                             Soon enough – The Constantines
                             http://www.constantines.ca/
-------------------------------------------------------------------------------
Tabbed by: deHufter
Email: kurtkill@hotmail.com

Tuning: normal

e|-------------------------------------------------------------------------|
B|----------------------------------0-0---0-0------------------------------|
G|----0-0---0-0---0-0---0-0---0-0---0-0---0-0---0---0----------------------|
D|----2-2---2-2---2-2---2-2---0-0---0-0---0-0---0---0----------------------|
A|--------------------3----------------------------------------------------|
E|--0-----0-----0-----------3-----3-----3-----3---2------------------------|

e|-----7\5/7---3---3\5—-5\8------------------------------------------------|
B|-------------3---3\5—-5\8------------------------------------------------|
G|-------------0---0-0—-0-0------------------------------------------------|
D|-------------0---0-------------------------------------------------------|
A|-----7\5/7---2---2\4—-4\7------------------------------------------------|
E|----(0)------3---3\5—-5\8------------------------------------------------|

e|-------------------------------------------------------------------------|
B|-------------------------------------------------------------------------|
G|-----0-0---0-0---0-0----0-0----------------------------------------------|
D|-----0-0---0-0---0-0----2-2----------------------------------------------|
A|----------------------3--------------------------------------------------|
E|---3-----3-----3---------------------------------------------------------|
Добавлено: 18.06.2012
Другие материалы по этой песне:
  • Аккорды и текст

Страница создана 18.06.2012
http://primanota.ru/the-constantines/soon-enough-chords.htm
Привет, Гость.
Предлагаем пройти революционный курс по гитаре.
Подарок от PrimaNota.Ru, забирай!