PrimaNota.ru - самый крупный в мире бесплатный архив песенных текстов, аккордов, табулатур и нот


The Constantines - Some Party - таба, видео

Регистрация Запомнить меня
Войти через:  Facebook Google Twitter Vk Yandex Mail.ru

The Constantines - Some Party - таба, видео

Печатать
Просмотров: 104
-------------------------------------------------------------------------------
                             Some party – The Constantines
-------------------------------------------------------------------------------
Tabbed by: deHufter
Email: kurtkill@hotmail.com

Tuning: normal

Guitar 1 (0:00 – 0:07)
e|-------------------------------------------------------------------------|
B|-------------------------------------------------------------------------|
G|--7---7--7--7---7---7--7-------------------------------------------------|
D|--7---7--7--7---7---7--7-------------------------------------------------|
A|----5---------5---5------------------------------------------------------|
E|-------------------------------------------------------------------------|

Guitar 1 (0:07 – 0:11)
e|--------------------------------8---8------------------------------------|
B|--------------------------------10--10\----------------------------------|
G|--10-10-10-10-10-10-10-10-10-10—10--10\----------------------------------|
D|--10-10-10-10-10-10-10-10-10-10—10--10\----------------------------------|
A|--8--8--8--8--8--8--8--8--8--8--8---8\-----------------------------------|
E|--------------------------------8---8\-----------------------------------|

Guitar 2 (0:11 – 0:19)
e|-------------------------------------------------------------------------|
B|-------------------------------------------------------------------------|
G|---14-14-14-14-14-14-14-14---------------×2------------------------------|
D|---------------------------12-12-----------------------------------------|
A|-------------------------------------------------------------------------|
E|-------------------------------------------------------------------------|

Guitar 1 (0:11 – 0:19)
e|-------------------------------------------------------------------------|
B|-------------------------------------------------------------------------|
G|---7---7--7--7---7---7--7—-10\-------------------------------------------|
D|---7---7--7--7---7---7--7—-10\--×2---------------------------------------|
A|-----5----5----5---5----5—-8\--------------------------------------------|
E|-------------------------------------------------------------------------|

Guitar 1 (0:19 – 0:34)
e|-------------------------------------------------------------------------|
B|-------------------------------------------------------------------------|
G|---7---7--7--7---7---7--7—-----------------------------------------------|
D|---7---7--7--7---7---7--7—----×4-----------------------------------------|
A|-----5----5----5---5----5—-3~--------------------------------------------|
E|-------------------------------------------------------------------------|

Guitar 2 (0:19 – 0:34)
e|-------------------------------------------------------------------------|
B|-------------------------------------------------------------------------|
G|--- x 7--- x 7--- x 7----------------------------------------------------|
D|--- x 7--- x 7--- x 7---3\---×4------------------------------------------|
A|--- x 5--- x 5--- x 5---3\-----------------------------------------------|
E|-------------------------------------------------------------------------|


Then guitar 1 plays 0:07 – 0:11 riff
Then guitar 1 + 2 play 0:19 – 0:34 riffs together
At 0:53 guitar 1 plays 0:07 – 0:11 riff again

Guitar 1 (0:57 – 1:13)
e|---5-5-----5-5-----5-5---------------------------------------------------|
B|---6-6-----6-6-----6-6---------10-10-------------------------------------|
G|-------7-7-----7-7-----7—-7/10-10-10-------------------------------------|
D|-------7-7-----7-7-----7--7/10-10-10-------------------------------------|
A|-------5-5-----5-5-----5--5/8--8--8--------------------------------------|
E|-------------------------------------------------------------------------|

Guitar 2 (0:57 – 1:13)
e|--------------------------------------------------------------------------|
B|--------------------------------------------------------------------------|
G|--------------------------------------------------------------------------|
D|---7-lots of times—(listen to song for rythm)-----------------------------|
A|---5----------------------------------------------------------------------|
E|--------------------------------------------------------------------------|

Guitar 2 (1:13 – 1:16)
e|-------------------------------------------------------------------------|
B|--1010101010101010-------------------------------------------------------|
G|--1010101010101010---44444444--------------------------------------------|
D|--1010101010101010---33333333--------------------------------------------|
A|--8-8-8-8-8-8-8-8----55555555--------------------------------------------|
E|---------------------33333333--------------------------------------------|

Then guitar 1 plays 0:11 – 0:19 riff 2 times and then 0:19 – 0:34
riff 4 times. After this guitar 1 plays 0:07 – 0:11 riff.
Then 0:19 - 0:34 riff 4 times again and the 0:07 – 0:11.

Guitar 2 (1:16 – 1:24)
e|---5-lots of times---8-8-------------------------------------------------|
B|-------------------------3-----------------------------------------------|
G|---------------------------×2--------------------------------------------|
D|-------------------------------------------------------------------------|
A|-------------------------------------------------------------------------|
E|-------------------------------------------------------------------------|
  PM~~~~~~~~~~~~~~~~~~~~~~~~

Guitar 2 then plays 0:19 – 0:34 riff 4 times. Then:

Guitar 2 (1:40 – 1:58)
e|------------------8\-:-5-lots of times--8-8----:-------------------8\----|
B|-3-3-3-3-3-3-3-3-----:-----------------------3-:×2-3-3-3-3-3-3-3-3-------|
G|---------------------:-------------------------:-------------------------|
D|-------------------------------------------------------------------------|
A|-------------------------------------------------------------------------|
E|-------------------------------------------------------------------------|
  PM~~~~~~~~~~~~~~~~~~~~~~~~~~~~~~~~~~~~~~~~~~~~~~~~~~~~~~~~~~~~~~~~~~~~

Guitar 2 then plays 0:57 – 1:13 riff followed by 1:13 – 1:16
riff.

At 2:22 both guitar 1 and 2 play ‘guitar 2 0:11 – 0:19 riff'
4 times
At 2:37 they play ‘guitar 2 1:13 – 1:16 riff', then 4 times
‘guitar 2 0:11 – 0:19 riff again. Then 1:13 -1:16 riff.
At 3:00 guitar 1 plays 0:19 – 0:34 riff till end

Guitar 2 (3:00 – end)
e|----8--8----------------8-8-----------------------------------------------|
B|----10-10-----10-10---------3---------------------------------------------|
G|----7--7------7--7--------------------------------------------------------|
D|--------------------------------------------------------------------------|
A|--------------------------------------------------------------------------|
E|--------------------------------------------------------------------------|

| /  slide up
| \  slide down
| h  hammer-on
| p  pull-off
| ~  vibrato
| +  harmonic
| x  Mute note
===============================================================================
Добавлено: 24.05.2012
Другие материалы по этой песне:
  • Аккорды и текст

Страница создана 24.05.2012
http://primanota.ru/the-constantines/some-party-chords.htm
Привет, Гость.
Предлагаем пройти революционный курс по гитаре.
Подарок от PrimaNota.Ru, забирай!