PrimaNota.ru - самый крупный в мире бесплатный архив песенных текстов, аккордов, табулатур и нот


The Comsat Angels - You Move Me - бас-таба, видео

Регистрация Запомнить меня
Войти через:  Facebook Google Twitter Vk Yandex Mail.ru

The Comsat Angels - You Move Me - бас-таба, видео

Печатать
Просмотров: 48
Tabbed by: bassm99
E-mail: alanmatthews1966@yahoo.co.uk

Tuning: E, A, D, G

"You Move Me" from the album "7 Day Weekend" (1985)
Written by The Comsat Angels

Opening: 
 
G|--------------------------------------------------------------------------|
D|--------------------------------------------------------------------------|
A|--------------------------------------------------------------------------|
E|--0-0-0-------------------------------------------------------------------|

Bass Stops: (0:04 - 0:11)

Intro: (Play 8 Times)

G|--------------------------------------------------------------------------|
D|--------------------------------------------------------------------------|
A|--11-11-11-11-11-11-11-11-------------------------------------------------|
E|--------------------------------------------------------------------------|

Verse: (Play Twice)

G|--------------------------------------------------------------------------|
D|--------------------------------------------------------------------------|
A|--11-11-11-11-11-11-11-11-(x8)--------------11-11-11-11-11-11-11-11-(x2)--|
E|--------------------------------0-0-0-(x8)--------------------------------|

Chorus:

G|--------------------------------------------------------------------------|
D|--------------------------------------------------------------------------|
A|--------------------------------------------------------------------------|
E|--0-0-0-(x3)-0-(x1)--4-4-4-(x3)-4-(x1)--0-0-0-(x3)-0-(x1)--22222222--2-2--|

Repeat Verse: (Play Once)

Repeat Chorus:

Guitar Solo:

G|--------------------------------------------------------------------------|
D|--------------------------------------------------------------------------|
A|--11-11-11-11-11-11-11-11-(x8)--------------44444444-(x2)-----------------|
E|--------------------------------0-0-0-(x8)--------------------------------|

Bridge: (Play 32 Times)

G|--------------------------------------------------------------------------|
D|--------------------------------------------------------------------------|
A|--------------------------------------------------------------------------|
E|--2--4--------------------------------------------------------------------|

Chorus:

G|--------------------------------------------------------------------------|
D|--------------------------------------------------------------------------|
A|--------------------------------------------------------------------------|
E|--0-0-0-(x3)-0-(x1)--4-4-4-(x3)-4-(x1)--0-0-0-(x3)-0-(x1)--4-4-4-(x3)-4---|

G|--------------------------------------------------------------------------|
D|--------------------------------------------------------------------------|
A|--------------------------------------------------------------------------|
E|--22222222-(x2)-44444444-(x2)-22222222-(x2)-00000000--0-0-----------------|

Ending: (Fading Out)

G|--------------------------------------------------------------------------|
D|--------------------------------------------------------------------------|
A|--11-11-11-11-11-11-11-11-(x24)--11-11-11-11------------------------------|
E|--------------------------------------------------------------------------|
Добавлено: 25.10.2015
Другие материалы по этой песне:
  • Аккорды и текст

Страница создана 25.10.2015
http://primanota.ru/the-comsat-angels/you-move-me-chords.htm
Привет, Гость.
Предлагаем пройти революционный курс по гитаре.
Подарок от PrimaNota.Ru, забирай!