PrimaNota.ru - самый крупный в мире бесплатный архив песенных текстов, аккордов, табулатур и нот


The Comsat Angels - Believe It - бас-таба, видео

Регистрация Запомнить меня
Войти через:  Facebook Google Twitter Vk Yandex Mail.ru

The Comsat Angels - Believe It - бас-таба, видео

Печатать
Просмотров: 64
Уроки эстрадного вокала в Санкт-Петербурге
Tabbed by: bassm99
E-mail: alanmatthews1966@yahoo.co.uk

Tuning: E, A, D, G

"Believe It" from the album "7 Day Weekend" (1985)
Written by The Comsat Angels

Bass Starts 0:24

Verse: (Play 4 Times)
 
G|--------------------------------------------------------------------------|
D|--------------------------------------------------------------------------|
A|--11--12--14--------------------------------------------------------------|
E|--------------------------------------------------------------------------|

Pre Chorus:

G|--------------------------------------------------------------------------|
D|--------------------------------------------------------------------------|
A|--12--12-12---16--16-16-(x3)--12--12-12-----------------------------------|
E|------------------------------------------7-------------------------------|

Chorus: (Play 4 Times)

G|--------------------------------------------------------------------------|
D|--------------------------------------------------------------------------|
A|--11-11-11-11--12-12-12-12--14-14-14-14-14-14-14-14-----------------------|
E|--------------------------------------------------------------------------|

Verse: (Play 8 Times)

G|--------------------------------------------------------------------------|
D|--------------------------------------------------------------------------|
A|--------------------------------------------------------------------------|
E|--4444--5555--77777777----------------------------------------------------|

Repeat Pre Chorus:

Repeat Chorus:

Guitar Solo:

G|--------------------------------------------------------------------------|
D|--------------------------------------------------------------------------|
A|--------------------------------------------------------------------------|
E|--11-11-11-11--12-12-12-12--14-14-14-14-14-14-14-14-(x4)---0--------------|

Bass Stops: (2:25 - 2:40)

Verse: (Play 4 Times)

G|--------------------------------------------------------------------------|
D|--------------------------------------------------------------------------|
A|--11--12--14--------------------------------------------------------------|
E|--------------------------------------------------------------------------|

Repeat Pre Chorus:

Repeat Chorus (Play 14 Times) (Fading Out)

End:

G|--------------------------------------------------------------------------|
D|--------------------------------------------------------------------------|
A|--11-11-11-11--12-12-12-12------------------------------------------------|
E|--------------------------------------------------------------------------|
Добавлено: 25.10.2015
Другие материалы по этой песне:
  • Аккорды и текст

Страница создана 25.10.2015
http://primanota.ru/the-comsat-angels/believe-it-chords.htm
Привет, Гость.
Предлагаем пройти революционный курс по гитаре.
Подарок от PrimaNota.Ru, забирай!