PrimaNota.ru - самый крупный в мире бесплатный архив песенных текстов, аккордов, табулатур и нот


The Company Band - Zombie Barricades - таба, видео

Регистрация Запомнить меня
Войти через:  Facebook Google Twitter Vk Yandex Mail.ru

The Company Band - Zombie Barricades - таба, видео

Печатать
Просмотров: 264
Уроки эстрадного вокала в Санкт-Петербурге
Tab by: Ivan Urrutia

Hello there, this is my first tab and I hope it is useful tu everybody.

Intro

E-------------------------------|
B-------------------------------|
G-------------------------------|.....4 times
D-------------------------------|
A---2222----/10-10-10-/11-11-11-|
E---0000-----0--0--0---0--0--0--|


Verses

Zombie barricades failing all around you...
E-------------------------------|
B-------------------------------|
G-------------------------------|.....4 times
D-------------------------------|
A---2222----/10-10-10-/11-11-11-|
E---0000-----0--0--0---0--0--0--|

Find the final cache, pray it be of value...
E--------------------------------------------------------------------------|
B--------------------------------------------------------------------------|
G---------------------------*2 times*----------------------------*2--------| times*
D---2222/10-10-10-/11-11-11------------------------------------------------|
A---0000-0--0--0---0--0--0------------2222----/10-10-10-/11-11-11----------|
E---xxxx-x--x--x---x--x--x------------0000-----0--0--0---0--0--0-----------|

Black eyed phantoms dropping laser guided curses...
E-------------------------------|
B-------------------------------|
G-------------------------------|.....4 times
D-------------------------------|
A---2222----/10-10-10-/11-11-11-|
E---0000-----0--0--0---0--0--0--|

Backward secret messages disguised in pretty verses.
E--------------------------------------------------------------------------|
B--------------------------------------------------------------------------|
G---------------------------*2 times*----------------------------*2--------| times*
D---2222/10-10-10-/11-11-11------------------------------------------------|
A---0000-0--0--0---0--0--0------------2222----/10-10-10-/11-11-11----------|
E---xxxx-x--x--x---x--x--x------------0000-----0--0--0---0--0--0-----------|

Chorus

Bring back the P.M.R.C., I need that motivation...
E-----------------------------------------------------|
B-----------------------------------------------------|
G-----------------------------------------------------|.....2 times
D-------------7777------------------------------------|
A---2222-5555-5555-7777-----------2222-5555-77777777--|
E---0000-3333------5555-----------0000-3333-55555555--|

Bridge

E--12-vibrato--------------------------------------------------|
B-------------555555-88888-77777-66666--55555-88888-77777-6666-|
G--------------------------------------------------------------|.2 times
D--------------------------------------------------------------|
A--------------------------------------------------------------|
E--------------------------------------------------------------|

Bridge 2

E--------------|
B--------------|
G--------------|
D-9-9-9-9------|
A-7-7-7-7-10-9-|
E---------8--7-|

Chourus.

Play intro.

Chorus.

Bridge 2

And that's all folks! \m/ I hope you to enjoy this son as much as I do :D \m/

Any comment or suggestion...josueurrutia15@gmail.com \m/
Добавлено: 30.06.2012
Другие материалы по этой песне:

Страница создана 30.06.2012
http://primanota.ru/the-company-band/zombie-barricades-chords.htm
Привет, Гость.
Предлагаем пройти революционный курс по гитаре.
Подарок от PrimaNota.Ru, забирай!