PrimaNota.ru - самый крупный в мире бесплатный архив песенных текстов, аккордов, табулатур и нот


The Colourist - Stray Away - таба, видео

Регистрация Запомнить меня
Войти через:  Facebook Google Twitter Vk Yandex Mail.ru

The Colourist - Stray Away - таба, видео

Печатать
Просмотров: 79
Уроки эстрадного вокала в Санкт-Петербурге
**********************************************************************
* STRAY AWAY by THE COLOURIST                                        *
*                                                                    *
* BPM: 138                                                           *
* - = 16th note (unless otherwise stated)                            *
*                                                                    *
* P.M. = Palm Muted                                                  *
* L.R. = Let Ring                                                    *
* rit. = ritardando                                                  *
*                                                                    *
**********************************************************************

==INTRO===============================================================

  EM7                               E6/C#            E6/B            
e|----------------|----------------|----------------|----------------|
B|------9-------9-|------9-------9-|------9-------9-|------9-------9-|
G|--8-------8-----|--8-------8-----|--6-------6-----|--6-------6-----|
D|----6-------6---|----6-------6---|----6-------6---|----6-------6---|
A|----------------|----------------|----------------|----------------|
E|0-------0-------|0-------0-------|9-------9-------|7-------7-------|

  A6               Am6              E                                 
e|----------------|----------------|----------------|----------------|
B|------7-------7-|------5-------0-|------0-------0-|------0-------0-|
G|--6-------6-----|--5-------5-----|--1-------1-----|--1-------1-----|
D|----4-------4---|----4-------4---|----2-------2---|----2-------2---|
A|0-------0-------|0-------0-------|----------------|----------------|
E|----------------|----------------|0-------0-------|0-------0-------|

  EM7                               E6/C#            E6/B            
e|----------------|----------------|----------------|----------------|
B|------9-------9-|------9-------9-|------9-------9-|------9-------9-|
G|--8-------8-----|--8-------8-----|--6-------6-----|--6-------6-----|
D|----6-------6---|----6-------6---|----6-------6---|----6-------6---|
A|----------------|----------------|----------------|----------------|
E|0-------0-------|0-------0-------|9-------9-------|7-------7-------|

  A6               Am6              E                                 
e|----------------|----------------|----------------|----------------|
B|------7-------7-|------5-------0-|------0-------0-|------0-------0-|
G|--6-------6-----|--5-------5-----|--1-------1-----|--1-------1-----|
D|----4-------4---|----4-------4---|----2-------2---|----2-------2---|
A|0-------0-------|0-------0-------|----------------|----------------|
E|----------------|----------------|0-------0-------|0-------0-------|

==VERSE 1=============================================================

  EM7                               E6/C#            E6/B            
e|----------------|----------------|----------------|----------------|
B|------9-------9-|------9-------9-|------9-------9-|------9-------9-|
G|--8-------8-----|--8-------8-----|--6-------6-----|--6-------6-----|
D|----6-------6---|----6-------6---|----6-------6---|----6-------6---|
A|----------------|----------------|----------------|----------------|
E|0-------0-------|0-------0-------|9-------9-------|7-------7-------|

  A6               Am6              E                                 
e|----------------|----------------|----------------|----------------|
B|------7-------7-|------5-------0-|------0-------0-|------0-------0-|
G|--6-------6-----|--5-------5-----|--1-------1-----|--1-------1-----|
D|----4-------4---|----4-------4---|----2-------2---|----2-------2---|
A|0-------0-------|0-------0-------|----------------|----------------|
E|----------------|----------------|0-------0-------|0-------0-------|

  EM7                               E6/C#            E6/B            
e|----------------|----------------|----------------|----------------|
B|------9-------9-|------9-------9-|------9-------9-|------9-------9-|
G|--8-------8-----|--8-------8-----|--6-------6-----|--6-------6-----|
D|----6-------6---|----6-------6---|----6-------6---|----6-------6---|
A|----------------|----------------|----------------|----------------|
E|0-------0-------|0-------0-------|9-------9-------|7-------7-------|

  A6               Am6              E                                 
e|----------------|----------------|----------------|----------------|
B|------7-------7-|------5-------0-|------0-------0-|------0-------0-|
G|--6-------6-----|--5-------5-----|--1-------1-----|--1-------1-----|
D|----4-------4---|----4-------4---|----2-------2---|----2-------2---|
A|0-------0-------|0-------0-------|----------------|----------------|
E|----------------|----------------|0-------0-------|0-------0-------|

==CHORUS 1============================================================

  AM7                               E                                 
e|----------------|----------------|----------------|----------------|
B|------2-------2-|------2-------2-|------0-------0-|------0-------0-|
G|--1-------1-----|--1-------1-----|--1-------1-----|--1-------1-----|
D|----2-------2---|----2-------2---|----2-------2---|----2-------2---|
A|0-------0-------|0-------0-------|----------------|----------------|
E|----------------|----------------|0-------0-------|0-------0-------|

  AM7                               E                                 
e|----------------|----------------|----------------|----------------|
B|------2-------2-|------2-------2-|------0-------0-|------0-------0-|
G|--1-------1-----|--1-------1-----|--1-------1-----|--1-------1-----|
D|----2-------2---|----2-------2---|----2-------2---|----2-------2---|
A|0-------0-------|0-------0-------|----------------|----------------|
E|----------------|----------------|0-------0-------|0-------0-------|

  AM7                               E                                 
e|----------------|----------------|----------------|----------------|
B|------2-------2-|------2-------2-|------0-------0-|------0-------0-|
G|--1-------1-----|--1-------1-----|--1-------1-----|--1-------1-----|
D|----2-------2---|----2-------2---|----2-------2---|----2-------2---|
A|0-------0-------|0-------0-------|----------------|----------------|
E|----------------|----------------|0-------0-------|0-------0-------|

  AmM13                             E                                 
e|----------------|----------------|----------------|----------------|
B|------7-------7-|------7-------7-|------0-------0-|------0-------0-|
G|--5-------5-----|--5-------5-----|--1-------1-----|--1-------1-----|
D|----6-------6---|----6-------6---|----2-------2---|----2-------2---|
A|0-------0-------|0-------0-------|----------------|----------------|
E|----------------|----------------|0-------0-------|0-------0-------|

==INTERLUDE 1=========================================================

  EM7                               E6/C#            E6/B            
e|----------------|----------------|----------------|----------------|
B|------9-------9-|------9-------9-|------9-------9-|------9-------9-|
G|--8-------8-----|--8-------8-----|--6-------6-----|--6-------6-----|
D|----6-------6---|----6-------6---|----6-------6---|----6-------6---|
A|----------------|----------------|----------------|----------------|
E|0-------0-------|0-------0-------|9-------9-------|7-------7-------|

  A6               Am6              E                                 
e|----------------|----------------|----------------|----------------|
B|------7-------7-|------5-------0-|------0-------0-|------0-------0-|
G|--6-------6-----|--5-------5-----|--1-------1-----|--1-------1-----|
D|----4-------4---|----4-------4---|----2-------2---|----2-------2---|
A|0-------0-------|0-------0-------|----------------|----------------|
E|----------------|----------------|0-------0-------|0-------0-------|

==VERSE 2=============================================================

  EM7                               E6/C#            E6/B            
e|----------------|----------------|----------------|----------------|
B|------9-------9-|------9-------9-|------9-------9-|------9-------9-|
G|--8-------8-----|--8-------8-----|--6-------6-----|--6-------6-----|
D|----6-------6---|----6-------6---|----6-------6---|----6-------6---|
A|----------------|----------------|----------------|----------------|
E|0-------0-------|0-------0-------|9-------9-------|7-------7-------|

  A6               Am6              E                                 
e|----------------|----------------|----------------|----------------|
B|------7-------7-|------5-------0-|------0-------0-|------0-------0-|
G|--6-------6-----|--5-------5-----|--1-------1-----|--1-------1-----|
D|----4-------4---|----4-------4---|----2-------2---|----2-------2---|
A|0-------0-------|0-------0-------|----------------|----------------|
E|----------------|----------------|0-------0-------|0-------0-------|

  EM7                               E6/C#            E6/B            
e|----------------|----------------|----------------|----------------|
B|------9-------9-|------9-------9-|------9-------9-|------9-------9-|
G|--8-------8-----|--8-------8-----|--6-------6-----|--6-------6-----|
D|----6-------6---|----6-------6---|----6-------6---|----6-------6---|
A|----------------|----------------|----------------|----------------|
E|0-------0-------|0-------0-------|9-------9-------|7-------7-------|

  A6               Am6              E                                 
e|----------------|----------------|----------------|----------------|
B|------7-------7-|------5-------0-|------0-------0-|------0-------0-|
G|--6-------6-----|--5-------5-----|--1-------1-----|--1-------1-----|
D|----4-------4---|----4-------4---|----2-------2---|----2-------2---|
A|0-------0-------|0-------0-------|----------------|----------------|
E|----------------|----------------|0-------0-------|0-------0-------|

==CHORUS 2============================================================

  AM7                               E                                 
  P.M.................................................................
e|----------------|----------------|----------------|----------------|
B|2-2-2-2-2-2-2-2-|2-2-2-2-2-2-2-2-|----------------|----------------|
G|1-1-1-1-1-1-1-1-|1-1-1-1-1-1-1-1-|1-1-1-1-1-1-1-1-|1-1-1-1-1-1-1-1-|
D|2-2-2-2-2-2-2-2-|2-2-2-2-2-2-2-2-|2-2-2-2-2-2-2-2-|2-2-2-2-2-2-2-2-|
A|0-0-0-0-0-0-0-0-|0-0-0-0-0-0-0-0-|2-2-2-2-2-2-2-2-|2-2-2-2-2-2-2-2-|
E|----------------|----------------|0-0-0-0-0-0-0-0-|0-0-0-0-0-0-0-0-|

  AM7                               E                                 
  P.M.................................................................
e|----------------|----------------|----------------|----------------|
B|2-2-2-2-2-2-2-2-|2-2-2-2-2-2-2-2-|----------------|----------------|
G|1-1-1-1-1-1-1-1-|1-1-1-1-1-1-1-1-|1-1-1-1-1-1-1-1-|1-1-1-1-1-1-1-1-|
D|2-2-2-2-2-2-2-2-|2-2-2-2-2-2-2-2-|2-2-2-2-2-2-2-2-|2-2-2-2-2-2-2-2-|
A|0-0-0-0-0-0-0-0-|0-0-0-0-0-0-0-0-|2-2-2-2-2-2-2-2-|2-2-2-2-2-2-2-2-|
E|----------------|----------------|0-0-0-0-0-0-0-0-|0-0-0-0-0-0-0-0-|

  AM7                               E                                 
  P.M.................................................................
e|----------------|----------------|----------------|----------------|
B|2-2-2-2-2-2-2-2-|2-2-2-2-2-2-2-2-|----------------|----------------|
G|1-1-1-1-1-1-1-1-|1-1-1-1-1-1-1-1-|1-1-1-1-1-1-1-1-|1-1-1-1-1-1-1-1-|
D|2-2-2-2-2-2-2-2-|2-2-2-2-2-2-2-2-|2-2-2-2-2-2-2-2-|2-2-2-2-2-2-2-2-|
A|0-0-0-0-0-0-0-0-|0-0-0-0-0-0-0-0-|2-2-2-2-2-2-2-2-|2-2-2-2-2-2-2-2-|
E|----------------|----------------|0-0-0-0-0-0-0-0-|0-0-0-0-0-0-0-0-|

  AmM13                             E                                 
  L.R.                              L.R.                              
e|----------------|----------------|----------------|----------------|
B|7---------------|----------------|----------------|----------------|
G|5---------------|----------------|1---------------|----------------|
D|6---------------|----------------|2---------------|----------------|
A|0---------------|----------------|2---------------|----------------|
E|----------------|----------------|0---------------|----------------|

  AmM13                             E                                 
  P.M.................................................................
e|----------------|----------------|----------------|----------------|
B|7-7-7-7-7-7-7-7-|7-7-7-7-7-7-7-7-|----------------|----------------|
G|5-5-5-5-5-5-5-5-|5-5-5-5-5-5-5-5-|1-1-1-1-1-1-1-1-|1-1-1-1-1-1-1-1-|
D|6-6-6-6-6-6-6-6-|6-6-6-6-6-6-6-6-|2-2-2-2-2-2-2-2-|2-2-2-2-2-2-2-2-|
A|0-0-0-0-0-0-0-0-|0-0-0-0-0-0-0-0-|2-2-2-2-2-2-2-2-|2-2-2-2-2-2-2-2-|
E|----------------|----------------|0-0-0-0-0-0-0-0-|0-0-0-0-0-0-0-0-|

  AmM13                             E                                 
  P.M.................................................................
e|----------------|----------------|----------------|----------------|
B|7-7-7-7-7-7-7-7-|7-7-7-7-7-7-7-7-|----------------|----------------|
G|5-5-5-5-5-5-5-5-|5-5-5-5-5-5-5-5-|1-1-1-1-1-1-1-1-|1-1-1-1-1-1-1-1-|
D|6-6-6-6-6-6-6-6-|6-6-6-6-6-6-6-6-|2-2-2-2-2-2-2-2-|2-2-2-2-2-2-2-2-|
A|0-0-0-0-0-0-0-0-|0-0-0-0-0-0-0-0-|2-2-2-2-2-2-2-2-|2-2-2-2-2-2-2-2-|
E|----------------|----------------|0-0-0-0-0-0-0-0-|0-0-0-0-0-0-0-0-|

  AmM13                             E                                 
  P.M.....................                                            
e|----------------|----------------|----------------|----------------|
B|7-7-7-7-7-7-7-7-|7-7-7-7-7-7-7-7-|----------------|----------------|
G|5-5-5-5-5-5-5-5-|5-5-5-5-5-5-5-5-|1-1-1-1-1-1-1-1-|1-1-1-1-1-1-1-1-|
D|6-6-6-6-6-6-6-6-|6-6-6-6-6-6-6-6-|2-2-2-2-2-2-2-2-|2-2-2-2-2-2-2-2-|
A|0-0-0-0-0-0-0-0-|0-0-0-0-0-0-0-0-|2-2-2-2-2-2-2-2-|2-2-2-2-2-2-2-2-|
E|----------------|----------------|0-0-0-0-0-0-0-0-|0-0-0-0-0-0-0-0-|

==INTERLUDE 2=========================================================

e|----------------|----------------|----------------|----------------|
B|----------------|----------------|----------------|----------------|
G|8-8-8-8-8-8-8-8-|8-8-8-8-8-8-8-8-|6-6-6-6-6-6-6-6-|4-4-4-4-4-4-4-4-|
D|9-9-9-9-9-9-9-9-|9-9-9-9-9-9-9-9-|6-6-6-6-6-6-6-6-|4-4-4-4-4-4-4-4-|
A|7-7-7-7-7-7-7-7-|7-7-7-7-7-7-7-7-|4-4-4-4-4-4-4-4-|2-2-2-2-2-2-2-2-|
E|0-0-0-0-0-0-0-0-|0-0-0-0-0-0-0-0-|----------------|----------------|

e|----------------|----------------|----------------|----------------|
B|----------------|----------------|----------------|----------------|
G|----------------|----------------|----------------|----------------|
D|7-7-7-7-7-7-7-7-|6-6-6-6-6-6-6-6-|2-2-2-2-2-2-2-2-|2-2-2-2-2-2-2-2-|
A|7-7-7-7-7-7-7-7-|7-7-7-7-7-7-7-7-|2-2-2-2-2-2-2-2-|2-2-2-2-2-2-2-2-|
E|5-5-5-5-5-5-5-5-|4-4-4-4-4-4-4-4-|0-0-0-0-0-0-0-0-|0-0-0-0-0-0-0-0-|

e|----------------|----------------|----------------|----------------|
B|----------------|----------------|----------------|----------------|
G|8-8-8-8-8-8-8-8-|8-8-8-8-8-8-8-8-|6-6-6-6-6-6-6-6-|4-4-4-4-4-4-4-4-|
D|9-9-9-9-9-9-9-9-|9-9-9-9-9-9-9-9-|6-6-6-6-6-6-6-6-|4-4-4-4-4-4-4-4-|
A|7-7-7-7-7-7-7-7-|7-7-7-7-7-7-7-7-|4-4-4-4-4-4-4-4-|2-2-2-2-2-2-2-2-|
E|0-0-0-0-0-0-0-0-|0-0-0-0-0-0-0-0-|----------------|----------------|

e|----------------|----------------|----------------|----------------|
B|----------------|----------------|----------------|----------------|
G|----------------|----------------|----------------|----------------|
D|7-7-7-7-7-7-7-7-|6-6-6-6-6-6-6-6-|2-2-2-2-2-2-2-2-|2-2-2-2-2-2-2-2-|
A|7-7-7-7-7-7-7-7-|7-7-7-7-7-7-7-7-|2-2-2-2-2-2-2-2-|2-2-2-2-2-2-2-2-|
E|5-5-5-5-5-5-5-5-|4-4-4-4-4-4-4-4-|0-0-0-0-0-0-0-0-|0-0-0-0-0-0-0-0-|

==SOLO (Played over second half of INTERLUDE 2)=======================
( - = 32nd note )

e|12-12-12-12-12-12-12-12-12-12-12-12-12-12-12-12-|

e|14-14-14-14-14-14-14-14-12-12-12-12-12-12-12-12-|

e|9-9-9-9-9-9-9-9-9-9-9-9-9-9-9-9-|

e|7-7-7-7-7-7-7-7-7-7-7-7-7-7-7-7-|

e|5-5-5-5-5-5-5-5-5-5-5-5-5-5-5-5-|

e|4-4-4-4-4-4-4-4-4-4-4-4-4-4-4-4-|

e|0-0-0-0-0-0-0-0-0-0-0-0-0-0-0-0-|

e|0-0-0-0-0-0-0-0-0-0-0-0-0-0-0-0-|

==OUTRO===============================================================

  EM7                               E6/C#            E6/B            
e|----------------|----------------|----------------|----------------|
B|------9-------9-|------9-------9-|------9-------9-|------9-------9-|
G|--8-------8-----|--8-------8-----|--6-------6-----|--6-------6-----|
D|----6-------6---|----6-------6---|----6-------6---|----6-------6---|
A|----------------|----------------|----------------|----------------|
E|0-------0-------|0-------0-------|9-------9-------|7-------7-------|

  A6               Am6              E                                 
e|----------------|----------------|----------------|----------------|
B|------7-------7-|------5-------0-|------0-------0-|------0-------0-|
G|--6-------6-----|--5-------5-----|--1-------1-----|--1-------1-----|
D|----4-------4---|----4-------4---|----2-------2---|----2-------2---|
A|0-------0-------|0-------0-------|----------------|----------------|
E|----------------|----------------|0-------0-------|0-------0-------|

  EM7                               E6/C#            E6/B            
e|----------------|----------------|----------------|----------------|
B|------9-------9-|------9-------9-|------9-------9-|------9-------9-|
G|--8-------8-----|--8-------8-----|--6-------6-----|--6-------6-----|
D|----6-------6---|----6-------6---|----6-------6---|----6-------6---|
A|----------------|----------------|----------------|----------------|
E|0-------0-------|0-------0-------|9-------9-------|7-------7-------|

  A6               Am6        rit.  E (slow strum)                                 
e|----------------|----------------|-----0----------|----------------|
B|------7-------7-|------5-------0-|----0-----------|----------------|
G|--6-------6-----|--5-------5-----|---1------------|----------------|
D|----4-------4---|----4-------4---|--2-------------|----------------|
A|0-------0-------|0-------0-------|-2--------------|----------------|
E|----------------|----------------|0---------------|----------------|
Добавлено: 08.12.2015
Вам также может быть интересно:
Другие материалы по этой песне:
  • Аккорды и текст

Страница создана 08.12.2015
http://primanota.ru/the-colourist/stray-away-chords.htm
Привет, Гость.
Предлагаем пройти революционный курс по гитаре.
Подарок от PrimaNota.Ru, забирай!