PrimaNota.ru - самый крупный в мире бесплатный архив песенных текстов, аккордов, табулатур и нот


The Color Morale - Strange Comfort - таба, видео

Регистрация Запомнить меня
Войти через:  Facebook Google Twitter Vk Yandex Mail.ru

The Color Morale - Strange Comfort - таба, видео

Печатать
Просмотров: 256
-------------------------------------------------------------------------------
      Strange Comfort - The Color Morale            
 -------------------------------------------------------------------------------
 Tabbed by:GuitarMan0182
 E-mail:tylertisi80@gmail.com

 Tuning: C G C F A D

Please rate and I'll do more off of "Know Hope"



 Intro

 e|--------------------5--5----------------------------------------------------|
 B|----6--6---5--5-------------5------5-------6---6-----5----5-----------------|
 G|--7--7---7---7---7---7----7----7-7------7----7-----7----7-------------------|
 D|-0------0------0---------0------------0----------0--------------------------|
 A|----------------------------------------------------------------------------|
 E|----------------------------------------------------------------------------|


 e|---------------------------------------------------------------------------|
 B|--13--13--10~--10--10--8---------------------------------------------------|
 G|--10--10--10~--10--10--10--------------------------------------------------|
 D|---------------------------------------------------------------------------|
 A|---------------------------------------------------------------------------|
 E|---------------------------------------------------------------------------|






 Verse
 Repeat 3x
 e|---------------------------------------------------------------------------|
 B|---------------------------------------------------------------------------|
 G|---------------------------------------------------------------------------|
 D|--00000-00-000000-00-00000-00-00000-00-000000-00---------------------------|
 A|--00000-00-000000-00-00000-00-00000-00-000000-00---------------------------|
 E|--00000-00-000000-00-00000-00-00000-00-000000-00---------------------------|
     ..... .. ...... .. ..... .. ..... .. ...... ..

 Repeat 2x
 e|--------------5*------------------------5*---------------------------------|
 B|--------------5*------------------------5*---------------------------------|
 G|--------------5*------------------------5*---------------------------------|
 D|-00-0-0-00-0-0------------00-0-0-00-0-0------------------------------------|
 A|-00-0-0-00-0-0------------00-0-0-00-0-0------------------------------------|
 E|-00-0-0-00-0-0------------00-0-0-00-0-0-------3b3b-------------------------|
    .. . . .. . .            .. . . .. . .


 e|-----------------------------------------------------------------------------------------|
 B|-----------------------------------------------------------------------------------------|
 G|--------------------2x-------------------------------------4x----------------------------|
 D|0~--------00-----00----00-00-----00-----33-|------------------0-0-0-000-0-0-0--0000------|
 A|0~-12/3---00-----00----00-00-----00-----33-|--000-00-----00---0-0-0-000-0-0-0--0000------|
 E|0~-12/3---00-3b--00-3b-00-00-3b--00-----33-|--000-00-0-0-00---1-1-1-111-1-1-1--0000-0-0-0|
             ..     ..    .. ..     ..     ..    ... ..     ..   . . . ... . . .  ....  



 Chorus
 Those are 10's
 e|---------------------------------------------------------------------------|
 B|---------------------------------------------------------------------------|
 G|---------------------------------------------------------------------------|
 D|-8888888-101010101010-000000--55555555--8888888-10101010-333333-5555555555-|
 A|-8888888-101010101010-000000--55555555--8888888-10101010-333333-5555555555-|
 E|-8888888-101010101010-000000--55555555--8888888-10101010-333333-5555555555-|


  "...stay here forever..."
 e|---------------------------------------------------------------------------|
 B|---------------------------------------------------------------------------|
 G|---------------------------------------------------------------------------|
 D|-000000000000-888888888-0000000-1010101010-33333333-55555555-00000000000---|
 A|-000000000000-888888888-0000000-1010101010-33333333-55555555-00000000000---|
 E|-000000000000-888888888-0000000-1010101010-33333333-55555555-00000000000---|


 e|------------5---10--8------------------------------------------------------|
 B|-------6--5-----------10--8p-----------------------------------------------|
 G|-----7----------------------10~--------------------------------------------|
 D|---0-----------------------------------------------------------------------|
 A|---------------------------------------------------------------------------|
 E|---------------------------------------------------------------------------|





 Verse
 e|---------------------------------------------------------------------------|
 B|---------------------------------------------------------------------------|
 G|---------------------------3x----------------------------------------------|
 D|--00000000-00-0000000-00-------00000000--00-0000000-00---|guitar-2-|-------|
 A|--00000000-00-0000000-00-------00000000--00-0000000-00---|-1st-time|-------|
 E|--00000000-00-0000000-00-------00000000--00-0000000-00---|0000000--|-------|
     ........ .. ....... ..       ........  .. ....... ..    .......



 Guitar 2
 e|------17tp-20tp------------------------------------------------------------|
 B|--18tp---------------------------------------------------------------------|
 G|---------------------------------------------------------------------------|
 D|---------------------------------------------------------------------------|
 A|---------------------------------------------------------------------------|
 E|---------------------------------------------------------------------------|


 Bridge
 Those are 13's and 10's
                   Stop here 4th     4x
 e|-------------|-----------------|--------------------------------------------|
 B|-10-6-8-6--6-|-1313-10~-1010-8~|-13-10-11-10-8/6----------------------------|
 G|---------7---|-----------------|--------------------------------------------|
 D|-------------------------------|--------------------------------------------|
 A|----------------------------------------------------------------------------|
 E|----------------------------------------------------------------------------|

 Repeat 'till Chorus
 e|---------------------------------------------------------------------------|
 B|---------------------------------------------------------------------------|
 G|---------------------------------------------------------------------------|
 D|--88888888-101010101010-33333333333333-------------------------------------|
 A|--88888888-101010101010-33333333333333-------------------------------------|
 E|--88888888-101010101010-33333333333333-------------------------------------|


 Another melody that can go along with the oooos and ahhhs
 e|---------------------------------------------------------------------------|
 B|-13-13-13-10-10-10-11-11-11-10-10-10-13-13-13-6-6-6-6-6-6-6-6-6------------|
 G|---------------------------------------------------------------------------|
 D|---------------------------------------------------------------------------|
 A|---------------------------------------------------------------------------|
 E|---------------------------------------------------------------------------|




 Chorus
 Those are 10's
 e|---------------------------------------------------------------------------|
 B|---------------------------------------------------------------------------|
 G|---------------------------------------------------------------------------|
 D|-8888888-101010101010-000000--55555555--8888888-10101010-333333-5555555----|
 A|-8888888-101010101010-000000--55555555--8888888-10101010-333333-5555555----|
 E|-8888888-101010101010-000000--55555555--8888888-10101010-333333-5555555----|


  "...stay here forever..."
 e|---------------------------------------------------------------------------|
 B|---------------------------------------------------------------------------|
 G|---------------------------------------------------------------------------|
 D|-000000000000-888888888-0000000-1010101010-33333333-55555555-0000000-------|
 A|-000000000000-888888888-0000000-1010101010-33333333-55555555-0000000-------|
 E|-000000000000-888888888-0000000-1010101010-33333333-55555555-0000000-------|




 Outro
 Repeat 2x

 e|---------------------------------------------------------------------------|
 B|---------------------------------------------------------------------------|
 G|---------------------------------------------------------------------------|
 D|-0~--0000-00----0000-00-0-0~--0000-00-0--0000-00---------------------------|
 A|-0~--0000-00----0000-00-0-0~--0000-00-0--0000-00---------------------------|
 E|-0~--0000-00----0000-00-0-0~--0000-00-0--0000-00---------------------------|
        .... ..    .... .. .     .... .. .  .... ..


 19's 18's 22's Repeat as many times as necessary 

 e|---------------------------------------|-----------------------------------|
 B|--------------181818181818-22222222222-|----18~----------------------------|
 G|19191919191919-------------------------|-----------------------------------|
 D|---------------------------------------|-----------------------------------|
 A|---------------------------------------|-----------------------------------|
 E|---------------------------------------|-----------------------------------|
Добавлено: 12.07.2013
Другие материалы по этой песне:

Страница создана 12.07.2013
http://primanota.ru/the-color-morale/strange-comfort-chords.htm
Привет, Гость.
Предлагаем пройти революционный курс по гитаре.
Подарок от PrimaNota.Ru, забирай!